  0
SECTION
  2
HEADER
  9
$ACADVER
  1
AC1015
  9
$ACADMAINTVER
 70
     6
  9
$DWGCODEPAGE
  3
ANSI_1254
  9
$INSBASE
 10
0.0
 20
0.0
 30
0.0
  9
$EXTMIN
 10
0.0
 20
0.0
 30
0.0
  9
$EXTMAX
 10
279.4
 20
215.9
 30
0.0
  9
$LIMMIN
 10
0.0
 20
0.0
  9
$LIMMAX
 10
279.4
 20
215.9
  9
$ORTHOMODE
 70
     0
  9
$REGENMODE
 70
     1
  9
$FILLMODE
 70
     1
  9
$QTEXTMODE
 70
     0
  9
$MIRRTEXT
 70
     1
  9
$LTSCALE
 40
1.0
  9
$ATTMODE
 70
     1
  9
$TEXTSIZE
 40
3.5
  9
$TRACEWID
 40
1.0
  9
$TEXTSTYLE
  7
Standard
  9
$CLAYER
  8
0
  9
$CELTYPE
  6
ByLayer
  9
$CECOLOR
 62
   256
  9
$CELTSCALE
 40
1.0
  9
$DISPSILH
 70
     0
  9
$DIMSCALE
 40
1.0
  9
$DIMASZ
 40
3.5
  9
$DIMEXO
 40
1.0
  9
$DIMDLI
 40
3.75
  9
$DIMRND
 40
0.0
  9
$DIMDLE
 40
0.0
  9
$DIMEXE
 40
1.0
  9
$DIMTP
 40
0.0
  9
$DIMTM
 40
0.0
  9
$DIMTXT
 40
3.5
  9
$DIMCEN
 40
2.5
  9
$DIMTSZ
 40
0.0
  9
$DIMTOL
 70
     0
  9
$DIMLIM
 70
     0
  9
$DIMTIH
 70
     1
  9
$DIMTOH
 70
     1
  9
$DIMSE1
 70
     0
  9
$DIMSE2
 70
     0
  9
$DIMTAD
 70
     1
  9
$DIMZIN
 70
     0
  9
$DIMBLK
  1

  9
$DIMASO
 70
     1
  9
$DIMSHO
 70
     1
  9
$DIMPOST
  1

  9
$DIMAPOST
  1

  9
$DIMALT
 70
     0
  9
$DIMALTD
 70
     3
  9
$DIMALTF
 40
0.0393700787
  9
$DIMLFAC
 40
1.0
  9
$DIMTOFL
 70
     1
  9
$DIMTVP
 40
0.0
  9
$DIMTIX
 70
     0
  9
$DIMSOXD
 70
     0
  9
$DIMSAH
 70
     0
  9
$DIMBLK1
  1

  9
$DIMBLK2
  1

  9
$DIMSTYLE
  2
ISO-25
  9
$DIMCLRD
 70
     0
  9
$DIMCLRE
 70
     0
  9
$DIMCLRT
 70
     0
  9
$DIMTFAC
 40
1.0
  9
$DIMGAP
 40
1.524
  9
$DIMJUST
 70
     0
  9
$DIMSD1
 70
     0
  9
$DIMSD2
 70
     0
  9
$DIMTOLJ
 70
     0
  9
$DIMTZIN
 70
     0
  9
$DIMALTZ
 70
     0
  9
$DIMALTTZ
 70
     0
  9
$DIMUPT
 70
     0
  9
$DIMDEC
 70
     2
  9
$DIMTDEC
 70
     2
  9
$DIMALTU
 70
     2
  9
$DIMALTTD
 70
     3
  9
$DIMTXSTY
  7
Standard
  9
$DIMAUNIT
 70
     0
  9
$DIMADEC
 70
     2
  9
$DIMALTRND
 40
0.0
  9
$DIMAZIN
 70
     0
  9
$DIMDSEP
 70
    44
  9
$DIMATFIT
 70
     3
  9
$DIMFRAC
 70
     0
  9
$DIMLDRBLK
  1

  9
$DIMLUNIT
 70
     2
  9
$DIMLWD
 70
    -2
  9
$DIMLWE
 70
    -2
  9
$DIMTMOVE
 70
     0
  9
$LUNITS
 70
     2
  9
$LUPREC
 70
     2
  9
$SKETCHINC
 40
1.0
  9
$FILLETRAD
 40
10.0
  9
$AUNITS
 70
     0
  9
$AUPREC
 70
     2
  9
$MENU
  1
.
  9
$ELEVATION
 40
0.0
  9
$PELEVATION
 40
0.0
  9
$THICKNESS
 40
0.0
  9
$LIMCHECK
 70
     0
  9
$CHAMFERA
 40
0.0
  9
$CHAMFERB
 40
0.0
  9
$CHAMFERC
 40
0.0
  9
$CHAMFERD
 40
0.0
  9
$SKPOLY
 70
     0
  9
$TDCREATE
 40
2460616.666911597
  9
$TDUCREATE
 40
2460616.541911597
  9
$TDUPDATE
 40
2460616.666911852
  9
$TDUUPDATE
 40
2460616.541911852
  9
$TDINDWG
 40
0.0000000116
  9
$TDUSRTIMER
 40
0.0000000116
  9
$USRTIMER
 70
     1
  9
$ANGBASE
 50
0.0
  9
$ANGDIR
 70
     0
  9
$PDMODE
 70
     0
  9
$PDSIZE
 40
-1.0
  9
$PLINEWID
 40
0.0
  9
$SPLFRAME
 70
     0
  9
$SPLINETYPE
 70
     6
  9
$SPLINESEGS
 70
     8
  9
$HANDSEED
  5
10F
  9
$SURFTAB1
 70
     6
  9
$SURFTAB2
 70
     6
  9
$SURFTYPE
 70
     6
  9
$SURFU
 70
     6
  9
$SURFV
 70
     6
  9
$UCSBASE
  2

  9
$UCSNAME
  2

  9
$UCSORG
 10
0.0
 20
0.0
 30
0.0
  9
$UCSXDIR
 10
1.0
 20
0.0
 30
0.0
  9
$UCSYDIR
 10
0.0
 20
1.0
 30
0.0
  9
$UCSORTHOREF
  2

  9
$UCSORTHOVIEW
 70
     0
  9
$UCSORGTOP
 10
0.0
 20
0.0
 30
0.0
  9
$UCSORGBOTTOM
 10
0.0
 20
0.0
 30
0.0
  9
$UCSORGLEFT
 10
0.0
 20
0.0
 30
0.0
  9
$UCSORGRIGHT
 10
0.0
 20
0.0
 30
0.0
  9
$UCSORGFRONT
 10
0.0
 20
0.0
 30
0.0
  9
$UCSORGBACK
 10
0.0
 20
0.0
 30
0.0
  9
$PUCSBASE
  2

  9
$PUCSNAME
  2

  9
$PUCSORG
 10
0.0
 20
0.0
 30
0.0
  9
$PUCSXDIR
 10
1.0
 20
0.0
 30
0.0
  9
$PUCSYDIR
 10
0.0
 20
1.0
 30
0.0
  9
$PUCSORTHOREF
  2

  9
$PUCSORTHOVIEW
 70
     0
  9
$PUCSORGTOP
 10
0.0
 20
0.0
 30
0.0
  9
$PUCSORGBOTTOM
 10
0.0
 20
0.0
 30
0.0
  9
$PUCSORGLEFT
 10
0.0
 20
0.0
 30
0.0
  9
$PUCSORGRIGHT
 10
0.0
 20
0.0
 30
0.0
  9
$PUCSORGFRONT
 10
0.0
 20
0.0
 30
0.0
  9
$PUCSORGBACK
 10
0.0
 20
0.0
 30
0.0
  9
$USERI1
 70
     0
  9
$USERI2
 70
     0
  9
$USERI3
 70
     0
  9
$USERI4
 70
     0
  9
$USERI5
 70
     0
  9
$USERR1
 40
0.0
  9
$USERR2
 40
0.0
  9
$USERR3
 40
0.0
  9
$USERR4
 40
0.0
  9
$USERR5
 40
0.0
  9
$WORLDVIEW
 70
     1
  9
$SHADEDGE
 70
     3
  9
$SHADEDIF
 70
    70
  9
$TILEMODE
 70
     1
  9
$MAXACTVP
 70
    64
  9
$PINSBASE
 10
0.0
 20
0.0
 30
0.0
  9
$PLIMCHECK
 70
     0
  9
$PEXTMIN
 10
1.0000000000E+20
 20
1.0000000000E+20
 30
1.0000000000E+20
  9
$PEXTMAX
 10
-1.0000000000E+20
 20
-1.0000000000E+20
 30
-1.0000000000E+20
  9
$PLIMMIN
 10
0.0
 20
0.0
  9
$PLIMMAX
 10
420.0
 20
297.0
  9
$UNITMODE
 70
     0
  9
$VISRETAIN
 70
     1
  9
$PLINEGEN
 70
     0
  9
$PSLTSCALE
 70
     1
  9
$TREEDEPTH
 70
  3020
  9
$CMLSTYLE
  2
Standard
  9
$CMLJUST
 70
     0
  9
$CMLSCALE
 40
20.0
  9
$PROXYGRAPHICS
 70
     1
  9
$MEASUREMENT
 70
     1
  9
$CELWEIGHT
370
    -1
  9
$ENDCAPS
280
     0
  9
$JOINSTYLE
280
     0
  9
$LWDISPLAY
290
     1
  9
$INSUNITS
 70
     4
  9
$HYPERLINKBASE
  1

  9
$STYLESHEET
  1

  9
$XEDIT
290
     1
  9
$CEPSNTYPE
380
     0
  9
$PSTYLEMODE
290
     1
  9
$FINGERPRINTGUID
  2
{5f4a9ddd-5e3d-4e69-85b6-4373c3453d93}
  9
$VERSIONGUID
  2
{FAEB1C32-E019-11D5-929B-00C0DF256EC4}
  9
$EXTNAMES
290
     1
  9
$PSVPSCALE
 40
0.0
  9
$OLESTARTUP
290
     0
  0
ENDSEC
  0
SECTION
  2
CLASSES
  0
CLASS
  1
ACDBDICTIONARYWDFLT
  2
AcDbDictionaryWithDefault
  3
ObjectDBX Classes
 90
        0
280
     0
281
     0
  0
CLASS
  1
VISUALSTYLE
  2
AcDbVisualStyle
  3
ObjectDBX Classes
 90
     4095
280
     0
281
     0
  0
CLASS
  1
MATERIAL
  2
AcDbMaterial
  3
ObjectDBX Classes
 90
     1153
280
     0
281
     0
  0
CLASS
  1
SCALE
  2
AcDbScale
  3
ObjectDBX Classes
 90
     1153
280
     0
281
     0
  0
CLASS
  1
TABLESTYLE
  2
AcDbTableStyle
  3
ObjectDBX Classes
 90
     4095
280
     0
281
     0
  0
CLASS
  1
MLEADERSTYLE
  2
AcDbMLeaderStyle
  3
ACDB_MLEADERSTYLE_CLASS
 90
     4095
280
     0
281
     0
  0
CLASS
  1
SUN
  2
AcDbSun
  3
SCENEOE
 90
     1153
280
     0
281
     0
  0
CLASS
  1
ACDBPLACEHOLDER
  2
AcDbPlaceHolder
  3
ObjectDBX Classes
 90
        0
280
     0
281
     0
  0
CLASS
  1
LAYOUT
  2
AcDbLayout
  3
ObjectDBX Classes
 90
        0
280
     0
281
     0
  0
ENDSEC
  0
SECTION
  2
TABLES
  0
TABLE
  2
VPORT
  5
8
330
0
100
AcDbSymbolTable
 70
     1
  0
VPORT
  5
29
330
8
100
AcDbSymbolTableRecord
100
AcDbViewportTableRecord
  2
*Active
 70
     0
 10
0.0
 20
0.0
 11
1.0
 21
1.0
 12
139.7
 22
107.95
 13
0.0
 23
0.0
 14
10.0
 24
10.0
 15
10.0
 25
10.0
 16
0.0
 26
0.0
 36
1.0
 17
0.0
 27
0.0
 37
0.0
 40
215.9
 41
1.2941176471
 42
50.0
 43
0.0
 44
0.0
 50
0.0
 51
0.0
 71
     0
 72
  2000
 73
     1
 74
     3
 75
     0
 76
     0
 77
     0
 78
     0
281
     0
 65
     1
110
0.0
120
0.0
130
0.0
111
1.0
121
0.0
131
0.0
112
0.0
122
1.0
132
0.0
 79
     0
146
0.0
  0
ENDTAB
  0
TABLE
  2
LTYPE
  5
5
330
0
100
AcDbSymbolTable
 70
     6
  0
LTYPE
  5
14
330
5
100
AcDbSymbolTableRecord
100
AcDbLinetypeTableRecord
  2
ByBlock
 70
     0
  3

 72
    65
 73
     0
 40
0.0
  0
LTYPE
  5
15
330
5
100
AcDbSymbolTableRecord
100
AcDbLinetypeTableRecord
  2
ByLayer
 70
     0
  3

 72
    65
 73
     0
 40
0.0
  0
LTYPE
  5
16
330
5
100
AcDbSymbolTableRecord
100
AcDbLinetypeTableRecord
  2
Continuous
 70
     0
  3
Solid line
 72
    65
 73
     0
 40
0.0
  0
LTYPE
  5
6E
330
5
100
AcDbSymbolTableRecord
100
AcDbLinetypeTableRecord
  2
HIDDEN
 70
     0
  3
Hidden __ __ __ __ __ __ __ __ __ __ __ __ __ __
 72
    65
 73
     2
 40
1.905
 49
1.27
 74
     0
 49
-0.635
 74
     0
  0
LTYPE
  5
6F
330
5
100
AcDbSymbolTableRecord
100
AcDbLinetypeTableRecord
  2
PHANTOM
 70
     0
  3
Phantom ______  __  __  ______  __  __  ______
 72
    65
 73
     6
 40
12.7
 49
6.35
 74
     0
 49
-1.27
 74
     0
 49
1.27
 74
     0
 49
-1.27
 74
     0
 49
1.27
 74
     0
 49
-1.27
 74
     0
  0
LTYPE
  5
70
330
5
100
AcDbSymbolTableRecord
100
AcDbLinetypeTableRecord
  2
CENTER
 70
     0
  3
Center ____ _ ____ _ ____ _ ____ _ ____ _ ____
 72
    65
 73
     4
 40
10.16
 49
6.35
 74
     0
 49
-1.27
 74
     0
 49
1.27
 74
     0
 49
-1.27
 74
     0
  0
LTYPE
  5
71
330
5
100
AcDbSymbolTableRecord
100
AcDbLinetypeTableRecord
  2
CENTERX2
 70
     0
  3
Center (2x) ________  __  ________  __  _____
 72
    65
 73
     4
 40
20.32
 49
12.7
 74
     0
 49
-2.54
 74
     0
 49
2.54
 74
     0
 49
-2.54
 74
     0
  0
LTYPE
  5
72
330
5
100
AcDbSymbolTableRecord
100
AcDbLinetypeTableRecord
  2
DOT2
 70
     0
  3
Dot (.5x) ........................................
 72
    65
 73
     2
 40
0.635
 49
0.0
 74
     0
 49
-0.635
 74
     0
  0
ENDTAB
  0
TABLE
  2
LAYER
  5
2
330
0
100
AcDbSymbolTable
 70
    17
  0
LAYER
  5
10
330
2
100
AcDbSymbolTableRecord
100
AcDbLayerTableRecord
  2
0
 70
     0
 62
     7
  6
Continuous
370
    -3
390
F
  0
LAYER
  5
73
330
2
100
AcDbSymbolTableRecord
100
AcDbLayerTableRecord
  2
FORMAT
 70
     0
 62
     7
  6
Continuous
370
    -3
390
F
  0
LAYER
  5
74
330
2
100
AcDbSymbolTableRecord
100
AcDbLayerTableRecord
  2
YARDIMCI_GEOMETRI
 70
     0
 62
    -6
  6
Continuous
290
     0
370
    -3
390
F
  0
LAYER
  5
75
330
2
100
AcDbSymbolTableRecord
100
AcDbLayerTableRecord
  2
SAYFA_CERCEVESI
 70
     0
 62
     7
  6
Continuous
370
    25
390
F
  0
LAYER
  5
76
330
2
100
AcDbSymbolTableRecord
100
AcDbLayerTableRecord
  2
ANTET
 70
     0
 62
     7
  6
Continuous
370
    -3
390
F
  0
LAYER
  5
77
330
2
100
AcDbSymbolTableRecord
100
AcDbLayerTableRecord
  2
OLCU
 70
     0
 62
   150
  6
Continuous
370
    -3
390
F
  0
LAYER
  5
78
330
2
100
AcDbSymbolTableRecord
100
AcDbLayerTableRecord
  2
METIN
 70
     0
 62
    96
  6
Continuous
370
    -3
390
F
  0
LAYER
  5
79
330
2
100
AcDbSymbolTableRecord
100
AcDbLayerTableRecord
  2
BALON
 70
     0
 62
     5
  6
Continuous
370
    -3
390
F
  0
LAYER
  5
7A
330
2
100
AcDbSymbolTableRecord
100
AcDbLayerTableRecord
  2
VURGU
 70
     0
 62
     7
  6
Continuous
370
    -3
390
F
  0
LAYER
  5
7B
330
2
100
AcDbSymbolTableRecord
100
AcDbLayerTableRecord
  2
SILIK
 70
     0
 62
     7
  6
Continuous
370
    -3
390
F
  0
LAYER
  5
7C
330
2
100
AcDbSymbolTableRecord
100
AcDbLayerTableRecord
  2
MODEL
 70
     0
 62
     7
  6
Continuous
370
    -3
390
F
  0
LAYER
  5
7D
330
2
100
AcDbSymbolTableRecord
100
AcDbLayerTableRecord
  2
DETAYLANDıRMA
 70
     0
 62
   190
  6
Continuous
370
    -3
390
F
  0
LAYER
  5
7E
330
2
100
AcDbSymbolTableRecord
100
AcDbLayerTableRecord
  2
TOLERANS
 70
     0
 62
   230
  6
Continuous
370
    -3
390
F
  0
LAYER
  5
7F
330
2
100
AcDbSymbolTableRecord
100
AcDbLayerTableRecord
  2
MERKEZ_CIZGILERI
 70
     0
 62
    30
  6
Continuous
370
    -3
390
F
  0
LAYER
  5
80
330
2
100
AcDbSymbolTableRecord
100
AcDbLayerTableRecord
  2
KESIT-DETAY_CIZGILERI
 70
     0
 62
     7
  6
Continuous
370
    -3
390
F
  0
LAYER
  5
81
330
2
100
AcDbSymbolTableRecord
100
AcDbLayerTableRecord
  2
\U+041E\U+0421\U+0415\U+0412\U+042B\U+0415
 70
     0
 62
     7
  6
Continuous
370
    -3
390
F
  0
LAYER
  5
82
330
2
100
AcDbSymbolTableRecord
100
AcDbLayerTableRecord
  2
\U+0412\U+041E\U+0414\U+042F\U+041D\U+042B\U+0415_\U+0417\U+041D\U+0410\U+041A\U+0418
 70
     0
 62
    11
  6
Continuous
370
    -3
390
F
  0
ENDTAB
  0
TABLE
  2
STYLE
  5
3
330
0
100
AcDbSymbolTable
 70
     1
  0
STYLE
  5
11
330
3
100
AcDbSymbolTableRecord
100
AcDbTextStyleTableRecord
  2
Standard
 70
     0
 40
0.0
 41
1.0
 50
0.0
 71
     0
 42
3.5
  3
txt
  4

  0
ENDTAB
  0
TABLE
  2
VIEW
  5
6
330
0
100
AcDbSymbolTable
 70
     0
  0
ENDTAB
  0
TABLE
  2
UCS
  5
7
330
0
100
AcDbSymbolTable
 70
     0
  0
ENDTAB
  0
TABLE
  2
APPID
  5
9
330
0
100
AcDbSymbolTable
 70
     1
  0
APPID
  5
12
330
9
100
AcDbSymbolTableRecord
100
AcDbRegAppTableRecord
  2
ACAD
 70
     0
  0
ENDTAB
  0
TABLE
  2
DIMSTYLE
  5
A
330
0
100
AcDbSymbolTable
 70
     1
100
AcDbDimStyleTable
  0
DIMSTYLE
105
27
330
A
100
AcDbSymbolTableRecord
100
AcDbDimStyleTableRecord
  2
ISO-25
 70
     0
 41
2.5
 42
0.625
 43
3.75
 44
1.25
 73
     0
 74
     0
 77
     1
 78
     8
140
2.5
141
2.5
143
0.0393700787
147
0.625
171
     3
172
     1
178
     0
271
     2
272
     2
274
     3
278
    44
283
     0
284
     8
340
11
  0
ENDTAB
  0
TABLE
  2
BLOCK_RECORD
  5
1
330
0
100
AcDbSymbolTable
 70
     4
  0
BLOCK_RECORD
  5
1F
330
1
100
AcDbSymbolTableRecord
100
AcDbBlockTableRecord
  2
*Model_Space
340
22
  0
BLOCK_RECORD
  5
1B
330
1
100
AcDbSymbolTableRecord
100
AcDbBlockTableRecord
  2
*Paper_Space
340
1E
  0
BLOCK_RECORD
  5
23
330
1
100
AcDbSymbolTableRecord
100
AcDbBlockTableRecord
  2
*Paper_Space0
340
26
  0
BLOCK_RECORD
  5
8C
330
1
100
AcDbSymbolTableRecord
100
AcDbBlockTableRecord
  2
SW_CENTERMARKSYMBOL_0
340
0
102
{BLKREFS
331
97
102
}
  0
BLOCK_RECORD
  5
DE
330
1
100
AcDbSymbolTableRecord
100
AcDbBlockTableRecord
  2
SW_CENTERMARKSYMBOL_1
340
0
102
{BLKREFS
331
E9
102
}
  0
BLOCK_RECORD
  5
EA
330
1
100
AcDbSymbolTableRecord
100
AcDbBlockTableRecord
  2
SW_CENTERMARKSYMBOL_2
340
0
102
{BLKREFS
331
F5
102
}
  0
ENDTAB
  0
ENDSEC
  0
SECTION
  2
BLOCKS
  0
BLOCK
  5
20
330
1F
100
AcDbEntity
  8
0
100
AcDbBlockBegin
  2
*Model_Space
 70
     0
 10
0.0
 20
0.0
 30
0.0
  3
*Model_Space
  1

  0
ENDBLK
  5
21
330
1F
100
AcDbEntity
  8
0
100
AcDbBlockEnd
  0
BLOCK
  5
1C
330
1B
100
AcDbEntity
 67
     1
  8
0
100
AcDbBlockBegin
  2
*Paper_Space
 70
     0
 10
0.0
 20
0.0
 30
0.0
  3
*Paper_Space
  1

  0
ENDBLK
  5
1D
330
1B
100
AcDbEntity
 67
     1
  8
0
100
AcDbBlockEnd
  0
BLOCK
  5
24
330
23
100
AcDbEntity
  8
0
100
AcDbBlockBegin
  2
*Paper_Space0
 70
     0
 10
0.0
 20
0.0
 30
0.0
  3
*Paper_Space0
  1

  0
ENDBLK
  5
25
330
23
100
AcDbEntity
  8
0
100
AcDbBlockEnd
  0
BLOCK
  5
8D
330
8C
100
AcDbEntity
  8
0
100
AcDbBlockBegin
  2
SW_CENTERMARKSYMBOL_0
 70
     0
 10
0.0
 20
0.0
 30
0.0
  3
SW_CENTERMARKSYMBOL_0
  1

  0
LINE
  5
8F
330
8C
100
AcDbEntity
  8
FORMAT
 62
     0
100
AcDbLine
 10
0.0
 20
0.0
 30
0.0
 11
0.0
 21
2.5
 31
0.0
  0
LINE
  5
90
330
8C
100
AcDbEntity
  8
FORMAT
 62
     0
100
AcDbLine
 10
0.0
 20
0.0
 30
0.0
 11
-2.5
 21
0.0
 31
0.0
  0
LINE
  5
91
330
8C
100
AcDbEntity
  8
FORMAT
 62
     0
100
AcDbLine
 10
0.0
 20
0.0
 30
0.0
 11
0.0
 21
-2.5
 31
0.0
  0
LINE
  5
92
330
8C
100
AcDbEntity
  8
FORMAT
 62
     0
100
AcDbLine
 10
0.0
 20
0.0
 30
0.0
 11
2.5
 21
0.0
 31
0.0
  0
LINE
  5
93
330
8C
100
AcDbEntity
  8
FORMAT
 62
     0
100
AcDbLine
 10
0.0
 20
5.0
 30
0.0
 11
0.0
 21
143.15
 31
0.0
  0
LINE
  5
94
330
8C
100
AcDbEntity
  8
FORMAT
 62
     0
100
AcDbLine
 10
-5.0
 20
0.0
 30
0.0
 11
-143.15
 21
0.0
 31
0.0
  0
LINE
  5
95
330
8C
100
AcDbEntity
  8
FORMAT
 62
     0
100
AcDbLine
 10
0.0
 20
-5.0
 30
0.0
 11
0.0
 21
-143.15
 31
0.0
  0
LINE
  5
96
330
8C
100
AcDbEntity
  8
FORMAT
 62
     0
100
AcDbLine
 10
5.0
 20
0.0
 30
0.0
 11
143.15
 21
0.0
 31
0.0
  0
ENDBLK
  5
8E
330
8C
100
AcDbEntity
  8
0
100
AcDbBlockEnd
  0
BLOCK
  5
DF
330
DE
100
AcDbEntity
  8
0
100
AcDbBlockBegin
  2
SW_CENTERMARKSYMBOL_1
 70
     0
 10
0.0
 20
0.0
 30
0.0
  3
SW_CENTERMARKSYMBOL_1
  1

  0
LINE
  5
E1
330
DE
100
AcDbEntity
  8
FORMAT
 62
     0
100
AcDbLine
 10
0.0
 20
0.0
 30
0.0
 11
0.0
 21
2.5
 31
0.0
  0
LINE
  5
E2
330
DE
100
AcDbEntity
  8
FORMAT
 62
     0
100
AcDbLine
 10
0.0
 20
0.0
 30
0.0
 11
-2.5
 21
0.0
 31
0.0
  0
LINE
  5
E3
330
DE
100
AcDbEntity
  8
FORMAT
 62
     0
100
AcDbLine
 10
0.0
 20
0.0
 30
0.0
 11
0.0
 21
-2.5
 31
0.0
  0
LINE
  5
E4
330
DE
100
AcDbEntity
  8
FORMAT
 62
     0
100
AcDbLine
 10
0.0
 20
0.0
 30
0.0
 11
2.5
 21
0.0
 31
0.0
  0
LINE
  5
E5
330
DE
100
AcDbEntity
  8
FORMAT
 62
     0
100
AcDbLine
 10
0.0
 20
5.0
 30
0.0
 11
0.0
 21
9.5
 31
0.0
  0
LINE
  5
E6
330
DE
100
AcDbEntity
  8
FORMAT
 62
     0
100
AcDbLine
 10
-5.0
 20
0.0
 30
0.0
 11
-9.5
 21
0.0
 31
0.0
  0
LINE
  5
E7
330
DE
100
AcDbEntity
  8
FORMAT
 62
     0
100
AcDbLine
 10
0.0
 20
-5.0
 30
0.0
 11
0.0
 21
-9.5
 31
0.0
  0
LINE
  5
E8
330
DE
100
AcDbEntity
  8
FORMAT
 62
     0
100
AcDbLine
 10
5.0
 20
0.0
 30
0.0
 11
9.5
 21
0.0
 31
0.0
  0
ENDBLK
  5
E0
330
DE
100
AcDbEntity
  8
0
100
AcDbBlockEnd
  0
BLOCK
  5
EB
330
EA
100
AcDbEntity
  8
0
100
AcDbBlockBegin
  2
SW_CENTERMARKSYMBOL_2
 70
     0
 10
0.0
 20
0.0
 30
0.0
  3
SW_CENTERMARKSYMBOL_2
  1

  0
LINE
  5
ED
330
EA
100
AcDbEntity
  8
FORMAT
 62
     0
100
AcDbLine
 10
0.0
 20
0.0
 30
0.0
 11
0.0
 21
2.5
 31
0.0
  0
LINE
  5
EE
330
EA
100
AcDbEntity
  8
FORMAT
 62
     0
100
AcDbLine
 10
0.0
 20
0.0
 30
0.0
 11
-2.5
 21
0.0
 31
0.0
  0
LINE
  5
EF
330
EA
100
AcDbEntity
  8
FORMAT
 62
     0
100
AcDbLine
 10
0.0
 20
0.0
 30
0.0
 11
0.0
 21
-2.5
 31
0.0
  0
LINE
  5
F0
330
EA
100
AcDbEntity
  8
FORMAT
 62
     0
100
AcDbLine
 10
0.0
 20
0.0
 30
0.0
 11
2.5
 21
0.0
 31
0.0
  0
LINE
  5
F1
330
EA
100
AcDbEntity
  8
FORMAT
 62
     0
100
AcDbLine
 10
0.0
 20
5.0
 30
0.0
 11
0.0
 21
9.5
 31
0.0
  0
LINE
  5
F2
330
EA
100
AcDbEntity
  8
FORMAT
 62
     0
100
AcDbLine
 10
-5.0
 20
0.0
 30
0.0
 11
-9.5
 21
0.0
 31
0.0
  0
LINE
  5
F3
330
EA
100
AcDbEntity
  8
FORMAT
 62
     0
100
AcDbLine
 10
0.0
 20
-5.0
 30
0.0
 11
0.0
 21
-9.5
 31
0.0
  0
LINE
  5
F4
330
EA
100
AcDbEntity
  8
FORMAT
 62
     0
100
AcDbLine
 10
5.0
 20
0.0
 30
0.0
 11
9.5
 21
0.0
 31
0.0
  0
ENDBLK
  5
EC
330
EA
100
AcDbEntity
  8
0
100
AcDbBlockEnd
  0
ENDSEC
  0
SECTION
  2
ENTITIES
  0
LINE
  5
83
330
1F
100
AcDbEntity
  8
0
  6
Continuous
 62
     7
370
    25
100
AcDbLine
 10
137.6070913462
 20
256.4528501881
 30
0.0
 11
137.6070913462
 21
270.7249519231
 31
0.0
  0
LINE
  5
84
330
1F
100
AcDbEntity
  8
0
  6
Continuous
 62
     7
370
    25
100
AcDbLine
 10
123.6070913462
 20
270.7249519231
 30
0.0
 11
123.6070913462
 21
256.4535874752
 31
0.0
  0
CIRCLE
  5
85
330
1F
100
AcDbEntity
  8
0
  6
Continuous
 62
     7
370
    25
100
AcDbCircle
 10
130.6070913462
 20
95.8949519231
 30
0.0
 40
160.5
  0
ARC
  5
86
330
1F
100
AcDbEntity
  8
0
  6
Continuous
 62
     7
370
    25
100
AcDbCircle
 10
130.6070913462
 20
95.8949519231
 30
0.0
 40
161.4999999999993
100
AcDbArc
 50
92.4841866431
 51
180.0
  0
ARC
  5
87
330
1F
100
AcDbEntity
  8
0
  6
Continuous
 62
     7
370
    25
100
AcDbCircle
 10
130.6070913462
 20
95.8949519231
 30
0.0
 40
161.4999999999993
100
AcDbArc
 50
180.0
 51
87.5158133569
  0
SPLINE
  5
88
330
1F
100
AcDbEntity
  8
0
  6
Continuous
 62
     7
370
    25
100
AcDbSpline
210
0.0
220
0.0
230
1.0
 70
     8
 71
     3
 72
    14
 73
    10
 74
     0
 42
0.00000001
 43
0.00000001
 40
0.0
 40
0.0
 40
0.0
 40
0.0
 40
0.1561151117203613
 40
0.3122317126173135
 40
0.4683144619553256
 40
0.6244150692836126
 40
0.7805598005809257
 40
0.9366633663457552
 40
0.9999999999999999
 40
0.9999999999999999
 40
0.9999999999999999
 40
0.9999999999999999
 10
134.50219157816
 20
256.4574781297046
 30
0.0
 10
133.8052623936047
 20
256.4655364293641
 30
0.0
 10
132.4113973765109
 20
256.4816531055512
 30
0.0
 10
129.9987511169427
 20
256.4870843273966
 30
0.0
 10
127.6897752367425
 20
256.4712844298199
 30
0.0
 10
125.68822061889
 20
256.4435003051
 30
0.0
 10
124.2911654550129
 20
256.4254036951319
 30
0.0
 10
123.5976308337184
 20
256.4260249694447
 30
0.0
 10
123.6791949904447
 20
256.4474139980267
 30
0.0
 10
123.7027367076304
 20
256.4535874752251
 30
0.0
  0
SPLINE
  5
89
330
1F
100
AcDbEntity
  8
0
  6
Continuous
 62
     7
370
    25
100
AcDbSpline
210
0.0
220
0.0
230
1.0
 70
     8
 71
     3
 72
    11
 73
     7
 74
     0
 42
0.00000001
 43
0.00000001
 40
0.0
 40
0.0
 40
0.0
 40
0.0
 40
0.0953126804879586
 40
0.4390566490337306
 40
0.7826694139190651
 40
1.0
 40
1.0
 40
1.0
 40
1.0
 10
137.5275349507191
 20
256.4528501880959
 30
0.0
 10
137.5508820543948
 20
256.4483465753017
 30
0.0
 10
137.6584301901942
 20
256.4276007403108
 30
0.0
 10
137.0466328240116
 20
256.4247541531058
 30
0.0
 10
135.9204488104739
 20
256.4381669569321
 30
0.0
 10
134.8982355169841
 20
256.4520855445276
 30
0.0
 10
134.50219157816
 20
256.4574781297046
 30
0.0
  0
CIRCLE
  5
8A
330
1F
100
AcDbEntity
  8
0
  6
Continuous
 62
     7
370
    25
100
AcDbCircle
 10
130.6070913462
 20
95.8949519231
 30
0.0
 40
140.65
  0
LINE
  5
8B
330
1F
100
AcDbEntity
  8
0
  6
Continuous
 62
     7
370
    25
100
AcDbLine
 10
137.6070913462
 20
270.7249519231
 30
0.0
 11
123.6070913462
 21
270.7249519231
 31
0.0
  0
INSERT
  5
97
330
1F
100
AcDbEntity
  8
FORMAT
 62
     7
100
AcDbBlockReference
  2
SW_CENTERMARKSYMBOL_0
 10
130.6070913462
 20
95.8949519231
 30
0.0
  0
LINE
  5
98
330
1F
100
AcDbEntity
  8
0
  6
Continuous
 62
     7
370
    25
100
AcDbLine
 10
491.9525469763
 20
256.4847281813
 30
0.0
 11
486.9221211922
 21
256.3949519231
 31
0.0
  0
ARC
  5
99
330
1F
100
AcDbEntity
  8
0
  6
Continuous
 62
     7
370
    25
100
AcDbCircle
 10
596.4221211922
 20
-5738.230048077
 30
0.0
 40
5995.625000000038
100
AcDbArc
 50
90.0
 51
90.865556454
  0
ARC
  5
9A
330
1F
100
AcDbEntity
  8
0
  6
Continuous
 62
     7
370
    25
100
AcDbCircle
 10
596.4221211922
 20
5930.0199519231
 30
0.0
 40
5995.625000000038
100
AcDbArc
 50
268.9535308356
 51
270.0
  0
LINE
  5
9B
330
1F
100
AcDbEntity
  8
0
  6
Continuous
 62
     7
370
    25
100
AcDbLine
 10
596.4221211922
 20
-65.6050480769
 30
0.0
 11
621.4221211922
 21
-65.6050480769
 31
0.0
  0
LINE
  5
9C
330
1F
100
AcDbEntity
  8
0
  6
Continuous
 62
     7
370
    25
100
AcDbLine
 10
621.4221211922
 20
257.3949519231
 30
0.0
 11
596.4221211922
 21
257.3949519231
 31
0.0
  0
ARC
  5
9D
330
1F
100
AcDbEntity
  8
0
  6
Continuous
 62
     7
370
    25
100
AcDbCircle
 10
621.4221211922
 20
-5738.230048077
 30
0.0
 40
5995.625000000038
100
AcDbArc
 50
89.1348957211
 51
90.0
  0
LINE
  5
9E
330
1F
100
AcDbEntity
  8
0
  6
Continuous
 62
     7
370
    25
100
AcDbLine
 10
730.9221211922
 20
256.3949519231
 30
0.0
 11
725.8473990658
 21
256.4854999675
 31
0.0
  0
ARC
  5
9F
330
1F
100
AcDbEntity
  8
0
  6
Continuous
 62
     7
370
    25
100
AcDbCircle
 10
621.4221211922
 20
5930.0199519231
 30
0.0
 40
5995.625000000038
100
AcDbArc
 50
270.0
 51
271.0464691644
  0
LINE
  5
A0
330
1F
100
AcDbEntity
  8
0
  6
Continuous
 62
     7
370
    25
100
AcDbLine
 10
505.9221211922
 20
256.7077809695
 30
0.0
 11
505.9221211922
 21
270.7249519231
 31
0.0
  0
LINE
  5
A1
330
1F
100
AcDbEntity
  8
0
  6
Continuous
 62
     7
370
    25
100
AcDbLine
 10
491.9221211922
 20
270.7249519231
 30
0.0
 11
491.9221211922
 21
256.4834510274
 31
0.0
  0
LINE
  5
A2
330
1F
100
AcDbEntity
  8
0
  6
Continuous
 62
     7
370
    25
100
AcDbLine
 10
725.9221211922
 20
256.4822924471
 30
0.0
 11
725.9221211922
 21
270.7249519231
 31
0.0
  0
LINE
  5
A3
330
1F
100
AcDbEntity
  8
0
  6
Continuous
 62
     7
370
    25
100
AcDbLine
 10
711.9221211922
 20
270.7249519231
 30
0.0
 11
711.9221211922
 21
256.7105571395
 31
0.0
  0
LINE
  5
A4
330
1F
100
AcDbEntity
  8
0
  6
Continuous
 62
     7
370
    25
100
AcDbLine
 10
486.9221211922
 20
95.8949519231
 30
0.0
 11
486.9221211922
 21
256.3949519231
 31
0.0
  0
LINE
  5
A5
330
1F
100
AcDbEntity
  8
0
  6
Continuous
 62
     7
370
    25
100
AcDbLine
 10
486.9221211922
 20
-64.6050480769
 30
0.0
 11
486.9221211922
 21
95.8949519231
 31
0.0
  0
SPLINE
  5
A6
330
1F
100
AcDbEntity
  8
0
  6
Continuous
 62
     7
370
    25
100
AcDbSpline
210
0.0
220
0.0
230
1.0
 70
     8
 71
     3
 72
    18
 73
    14
 74
     0
 42
0.00000001
 43
0.00000001
 40
0.0
 40
0.0
 40
0.0
 40
0.0
 40
0.0253240891575485
 40
0.1324824436900951
 40
0.2396807646523404
 40
0.347039510559298
 40
0.454481125250354
 40
0.5618477584474235
 40
0.669107020588317
 40
0.7763602586384699
 40
0.883675843829529
 40
0.9910111194843616
 40
1.0
 40
1.0
 40
1.0
 40
1.0
 10
505.8506869769997
 20
256.7077458317855
 30
0.0
 10
505.8725250653797
 20
256.7090133144076
 30
0.0
 10
505.986770568786
 20
256.7156441232815
 30
0.0
 10
505.4074179394622
 20
256.6815719263895
 30
0.0
 10
504.1393844056878
 20
256.6144208403139
 30
0.0
 10
502.2190636086195
 20
256.5315840242108
 30
0.0
 10
499.9430217177475
 20
256.4636698023285
 30
0.0
 10
497.5456211059609
 20
256.4273380255661
 30
0.0
 10
495.3117864617142
 20
256.4259623635189
 30
0.0
 10
493.4624765350713
 20
256.4488349714314
 30
0.0
 10
492.3108741785602
 20
256.4737726372418
 30
0.0
 10
491.8131857468449
 20
256.4869436998666
 30
0.0
 10
491.9424695566708
 20
256.483684284549
 30
0.0
 10
491.9524598867741
 20
256.4834324151541
 30
0.0
  0
LINE
  5
A7
330
1F
100
AcDbEntity
  8
0
  6
Continuous
 62
     7
370
    25
100
AcDbLine
 10
730.9221211922
 20
95.8949519231
 30
0.0
 11
730.9221211922
 21
256.3949519231
 31
0.0
  0
LINE
  5
A8
330
1F
100
AcDbEntity
  8
0
  6
Continuous
 62
     7
370
    25
100
AcDbLine
 10
730.9221211922
 20
-64.6050480769
 30
0.0
 11
730.9221211922
 21
95.8949519231
 31
0.0
  0
SPLINE
  5
A9
330
1F
100
AcDbEntity
  8
0
  6
Continuous
 62
     7
370
    25
100
AcDbSpline
210
0.0
220
0.0
230
1.0
 70
     8
 71
     3
 72
    18
 73
    14
 74
     0
 42
0.00000001
 43
0.00000001
 40
0.0
 40
0.0
 40
0.0
 40
0.0
 40
0.0271023541612437
 40
0.1344018333864729
 40
0.2417135891321032
 40
0.3490556780113945
 40
0.4563694675416786
 40
0.563622506864026
 40
0.6708952709984888
 40
0.7782809051310239
 40
0.8857269225418885
 40
0.9930724813395131
 40
0.9999999999999999
 40
0.9999999999999999
 40
0.9999999999999999
 40
0.9999999999999999
 10
725.8472495970703
 20
256.4822786922861
 30
0.0
 10
725.8698384134536
 20
256.482856954867
 30
0.0
 10
725.9818574033129
 20
256.4857245858706
 30
0.0
 10
725.3912522503642
 20
256.4701828427988
 30
0.0
 10
724.1079351314208
 20
256.4441084589473
 30
0.0
 10
722.1775947524159
 20
256.4240728268836
 30
0.0
 10
719.8976974020748
 20
256.4308910065586
 30
0.0
 10
717.5027365150017
 20
256.473244521159
 30
0.0
 10
715.2751604690827
 20
256.5449212638584
 30
0.0
 10
713.4339636097067
 20
256.627942281064
 30
0.0
 10
712.2967713874341
 20
256.6896724297749
 30
0.0
 10
711.8080680468389
 20
256.7184666515384
 30
0.0
 10
711.9380699733815
 20
256.7109746387531
 30
0.0
 10
711.945951014061
 20
256.7105204542721
 30
0.0
  0
LINE
  5
AA
330
1F
100
AcDbEntity
  8
0
  6
Continuous
 62
     7
370
    25
100
AcDbLine
 10
505.9221211922
 20
270.7249519231
 30
0.0
 11
491.9221211922
 21
270.7249519231
 31
0.0
  0
LINE
  5
AB
330
1F
100
AcDbEntity
  8
0
  6
Continuous
 62
     7
370
    25
100
AcDbLine
 10
725.9221211922
 20
270.7249519231
 30
0.0
 11
711.9221211922
 21
270.7249519231
 31
0.0
  0
LINE
  5
AC
330
1F
100
AcDbEntity
  8
0
  6
Continuous
 62
     1
370
    25
100
AcDbLine
 10
596.4221211922
 20
95.8949519231
 30
0.0
 11
596.4221211922
 21
257.3949519231
 31
0.0
  0
LINE
  5
AD
330
1F
100
AcDbEntity
  8
0
  6
Continuous
 62
     1
370
    25
100
AcDbLine
 10
596.4221211922
 20
-65.6050480769
 30
0.0
 11
596.4221211922
 21
95.8949519231
 31
0.0
  0
LINE
  5
AE
330
1F
100
AcDbEntity
  8
0
  6
Continuous
 62
     1
370
    25
100
AcDbLine
 10
621.4221211922
 20
95.8949519231
 30
0.0
 11
621.4221211922
 21
257.3949519231
 31
0.0
  0
LINE
  5
AF
330
1F
100
AcDbEntity
  8
0
  6
Continuous
 62
     1
370
    25
100
AcDbLine
 10
621.4221211922
 20
-65.6050480769
 30
0.0
 11
621.4221211922
 21
95.8949519231
 31
0.0
  0
ARC
  5
B0
330
1F
100
AcDbEntity
  8
0
  6
Continuous
 62
     7
370
    25
100
AcDbCircle
 10
5964.7320913462
 20
531.3749417301
 30
0.0
 40
5995.625000000038
100
AcDbArc
 50
180.0
 51
181.0464691644
  0
ARC
  5
B1
330
1F
100
AcDbEntity
  8
0
  6
Continuous
 62
     7
370
    25
100
AcDbCircle
 10
-5703.5179086539
 20
531.3749417301
 30
0.0
 40
5995.625000000038
100
AcDbArc
 50
358.9535308356
 51
0.0
  0
LINE
  5
B2
330
1F
100
AcDbEntity
  8
0
  6
Continuous
 62
     7
370
    25
100
AcDbLine
 10
292.1070913462
 20
531.3749417301
 30
0.0
 11
292.1070913462
 21
556.3749417301
 31
0.0
  0
LINE
  5
B3
330
1F
100
AcDbEntity
  8
0
  6
Continuous
 62
     7
370
    25
100
AcDbLine
 10
-30.8929086538
 20
556.3749417301
 30
0.0
 11
-30.8929086538
 21
531.3749417301
 31
0.0
  0
ARC
  5
B4
330
1F
100
AcDbEntity
  8
0
  6
Continuous
 62
     7
370
    25
100
AcDbCircle
 10
5964.7320913462
 20
556.3749417301
 30
0.0
 40
5995.625000000039
100
AcDbArc
 50
178.9535308356
 51
180.0
  0
ARC
  5
B5
330
1F
100
AcDbEntity
  8
0
  6
Continuous
 62
     7
370
    25
100
AcDbCircle
 10
-5703.5179086539
 20
556.3749417301
 30
0.0
 40
5995.625000000038
100
AcDbArc
 50
0.0
 51
1.0464691644
  0
LINE
  5
B6
330
1F
100
AcDbEntity
  8
0
  6
Continuous
 62
     7
370
    25
100
AcDbLine
 10
291.1070913462
 20
421.8749417301
 30
0.0
 11
-29.8929086538
 21
421.8749417301
 31
0.0
  0
LINE
  5
B7
330
1F
100
AcDbEntity
  8
0
  6
Continuous
 62
     7
370
    25
100
AcDbLine
 10
291.1070913462
 20
665.8749417301
 30
0.0
 11
-29.8929086538
 21
665.8749417301
 31
0.0
  0
LINE
  5
B8
330
1F
100
AcDbEntity
  8
0
  6
Continuous
 62
     1
370
    25
100
AcDbLine
 10
292.1070913462
 20
531.3749417301
 30
0.0
 11
-30.8929086538
 21
531.3749417301
 31
0.0
  0
LINE
  5
B9
330
1F
100
AcDbEntity
  8
0
  6
Continuous
 62
     1
370
    25
100
AcDbLine
 10
292.1070913462
 20
556.3749417301
 30
0.0
 11
-30.8929086538
 21
556.3749417301
 31
0.0
  0
ARC
  5
BA
330
1F
100
AcDbEntity
  8
0
  6
Continuous
 62
     7
370
    25
100
AcDbCircle
 10
-357.3239926911
 20
5930.0199519231
 30
0.0
 40
5995.625000000038
100
AcDbArc
 50
270.0
 51
271.0464691644
  0
ARC
  5
BB
330
1F
100
AcDbEntity
  8
0
  6
Continuous
 62
     7
370
    25
100
AcDbCircle
 10
-357.3239926911
 20
-5738.230048077
 30
0.0
 40
5995.625000000038
100
AcDbArc
 50
89.1344404249
 51
90.0
  0
LINE
  5
BC
330
1F
100
AcDbEntity
  8
0
  6
Continuous
 62
     7
370
    25
100
AcDbLine
 10
-247.8239926911
 20
256.3949519231
 30
0.0
 11
-252.854097295
 21
256.4847225841
 31
0.0
  0
LINE
  5
BD
330
1F
100
AcDbEntity
  8
0
  6
Continuous
 62
     7
370
    25
100
AcDbLine
 10
-357.3239926911
 20
257.3949519231
 30
0.0
 11
-382.3239926911
 21
257.3949519231
 31
0.0
  0
LINE
  5
BE
330
1F
100
AcDbEntity
  8
0
  6
Continuous
 62
     7
370
    25
100
AcDbLine
 10
-382.3239926911
 20
-65.6050480769
 30
0.0
 11
-357.3239926911
 21
-65.6050480769
 31
0.0
  0
ARC
  5
BF
330
1F
100
AcDbEntity
  8
0
  6
Continuous
 62
     7
370
    25
100
AcDbCircle
 10
-382.3239926911
 20
5930.0199519231
 30
0.0
 40
5995.625000000038
100
AcDbArc
 50
268.9535308356
 51
270.0
  0
LINE
  5
C0
330
1F
100
AcDbEntity
  8
0
  6
Continuous
 62
     7
370
    25
100
AcDbLine
 10
-486.7490337543
 20
256.4855040927
 30
0.0
 11
-491.8239926911
 21
256.3949519231
 31
0.0
  0
ARC
  5
C1
330
1F
100
AcDbEntity
  8
0
  6
Continuous
 62
     7
370
    25
100
AcDbCircle
 10
-382.3239926911
 20
-5738.230048077
 30
0.0
 40
5995.625000000038
100
AcDbArc
 50
90.0
 51
90.865100803
  0
LINE
  5
C2
330
1F
100
AcDbEntity
  8
0
  6
Continuous
 62
     7
370
    25
100
AcDbLine
 10
-252.8239926911
 20
256.4834510274
 30
0.0
 11
-252.8239926911
 21
270.7249519231
 31
0.0
  0
LINE
  5
C3
330
1F
100
AcDbEntity
  8
0
  6
Continuous
 62
     7
370
    25
100
AcDbLine
 10
-266.8239926911
 20
270.7249519231
 30
0.0
 11
-266.8239926911
 21
256.7077809695
 31
0.0
  0
LINE
  5
C4
330
1F
100
AcDbEntity
  8
0
  6
Continuous
 62
     7
370
    25
100
AcDbLine
 10
-472.8239926911
 20
256.7105571395
 30
0.0
 11
-472.8239926911
 21
270.7249519231
 31
0.0
  0
LINE
  5
C5
330
1F
100
AcDbEntity
  8
0
  6
Continuous
 62
     7
370
    25
100
AcDbLine
 10
-486.8239926911
 20
270.7249519231
 30
0.0
 11
-486.8239926911
 21
256.4822924471
 31
0.0
  0
LINE
  5
C6
330
1F
100
AcDbEntity
  8
0
  6
Continuous
 62
     7
370
    25
100
AcDbLine
 10
-247.8239926911
 20
256.3949519231
 30
0.0
 11
-247.8239926911
 21
-64.6050480769
 31
0.0
  0
SPLINE
  5
C7
330
1F
100
AcDbEntity
  8
0
  6
Continuous
 62
     7
370
    25
100
AcDbSpline
210
0.0
220
0.0
230
1.0
 70
     8
 71
     3
 72
     9
 73
     5
 74
     0
 42
0.00000001
 43
0.00000001
 40
0.0
 40
0.0
 40
0.0
 40
0.0
 40
0.5669393942792159
 40
1.0
 40
1.0
 40
1.0
 40
1.0
 10
-265.620186409683
 20
256.6456945436776
 30
0.0
 10
-266.01607485805
 20
256.6671172114156
 30
0.0
 10
-266.7143654555315
 20
256.7049037331395
 30
0.0
 10
-266.7410090658315
 20
256.7068865213832
 30
0.0
 10
-266.7525473638467
 20
256.7077451888611
 30
0.0
  0
SPLINE
  5
C8
330
1F
100
AcDbEntity
  8
0
  6
Continuous
 62
     7
370
    25
100
AcDbSpline
210
0.0
220
0.0
230
1.0
 70
     8
 71
     3
 72
    15
 73
    11
 74
     0
 42
0.00000001
 43
0.00000001
 40
0.0
 40
0.0
 40
0.0
 40
0.0
 40
0.1213762485293727
 40
0.2537962357980704
 40
0.3862578532210957
 40
0.5187140349246954
 40
0.6510944171154561
 40
0.7834535431299648
 40
0.9159265749718108
 40
1.0
 40
1.0
 40
1.0
 40
1.0
 10
-252.854224912218
 20
256.4834350920319
 30
0.0
 10
-252.9071539623014
 20
256.4819743909936
 30
0.0
 10
-253.0178279519679
 20
256.4789200831727
 30
0.0
 10
-254.1429348312182
 20
256.4528148606493
 30
0.0
 10
-255.8721161632184
 20
256.4286575437234
 30
0.0
 10
-258.0644122570027
 20
256.4248212286185
 30
0.0
 10
-260.4519799177666
 20
256.4552732707724
 30
0.0
 10
-262.7592346220688
 20
256.5186569025602
 30
0.0
 10
-264.5286696966154
 20
256.5911094859121
 30
0.0
 10
-265.3149253339229
 20
256.6304289107703
 30
0.0
 10
-265.620186409683
 20
256.6456945436776
 30
0.0
  0
LINE
  5
C9
330
1F
100
AcDbEntity
  8
0
  6
Continuous
 62
     7
370
    25
100
AcDbLine
 10
-491.8239926911
 20
256.3949519231
 30
0.0
 11
-491.8239926911
 21
-64.6050480769
 31
0.0
  0
SPLINE
  5
CA
330
1F
100
AcDbEntity
  8
0
  6
Continuous
 62
     7
370
    25
100
AcDbSpline
210
0.0
220
0.0
230
1.0
 70
     8
 71
     3
 72
     9
 73
     5
 74
     0
 42
0.00000001
 43
0.00000001
 40
0.0
 40
0.0
 40
0.0
 40
0.0
 40
0.5723163174854661
 40
1.0
 40
1.0
 40
1.0
 40
1.0
 10
-485.6401937005585
 20
256.4574781297046
 30
0.0
 10
-486.0335126655619
 20
256.4660246317221
 30
0.0
 10
-486.7207531879558
 20
256.480957810729
 30
0.0
 10
-486.7405967509278
 20
256.4818823340127
 30
0.0
 10
-486.7490835190138
 20
256.4822777375351
 30
0.0
  0
SPLINE
  5
CB
330
1F
100
AcDbEntity
  8
0
  6
Continuous
 62
     7
370
    25
100
AcDbSpline
210
0.0
220
0.0
230
1.0
 70
     8
 71
     3
 72
    15
 73
    11
 74
     0
 42
0.00000001
 43
0.00000001
 40
0.0
 40
0.0
 40
0.0
 40
0.0
 40
0.1234907908690999
 40
0.2554799872793708
 40
0.3876458369169272
 40
0.5199647392954332
 40
0.6522420190796252
 40
0.7843757473599224
 40
0.9164590415078304
 40
1.0
 40
1.0
 40
1.0
 40
1.0
 10
-472.847791592207
 20
256.7105222345758
 30
0.0
 10
-472.9058968550631
 20
256.7070362152288
 30
0.0
 10
-473.0261060764217
 20
256.6998242751953
 30
0.0
 10
-474.1669691329818
 20
256.6364343179221
 30
0.0
 10
-475.9043802174547
 20
256.5559750831359
 30
0.0
 10
-478.1020779215348
 20
256.4810800917002
 30
0.0
 10
-480.4926391566806
 20
256.4343169730936
 30
0.0
 10
-482.7977075166136
 20
256.4231822416888
 30
0.0
 10
-484.5588744261119
 20
256.4383968202451
 30
0.0
 10
-485.3382386427447
 20
256.4521497331457
 30
0.0
 10
-485.6401937005585
 20
256.4574781297046
 30
0.0
  0
LINE
  5
CC
330
1F
100
AcDbEntity
  8
0
  6
Continuous
 62
     7
370
    25
100
AcDbLine
 10
-252.8239926911
 20
270.7249519231
 30
0.0
 11
-266.8239926911
 21
270.7249519231
 31
0.0
  0
LINE
  5
CD
330
1F
100
AcDbEntity
  8
0
  6
Continuous
 62
     7
370
    25
100
AcDbLine
 10
-472.8239926911
 20
270.7249519231
 30
0.0
 11
-486.8239926911
 21
270.7249519231
 31
0.0
  0
LINE
  5
CE
330
1F
100
AcDbEntity
  8
0
  6
Continuous
 62
     1
370
    25
100
AcDbLine
 10
-357.3239926911
 20
257.3949519231
 30
0.0
 11
-357.3239926911
 21
-65.6050480769
 31
0.0
  0
LINE
  5
CF
330
1F
100
AcDbEntity
  8
0
  6
Continuous
 62
     1
370
    25
100
AcDbLine
 10
-382.3239926911
 20
257.3949519231
 30
0.0
 11
-382.3239926911
 21
-65.6050480769
 31
0.0
  0
ARC
  5
D0
330
1F
100
AcDbEntity
  8
0
  6
Continuous
 62
     7
370
    25
100
AcDbCircle
 10
-5703.5179086539
 20
-371.282493018
 30
0.0
 40
5995.625000000038
100
AcDbArc
 50
0.0
 51
1.0464691644
  0
ARC
  5
D1
330
1F
100
AcDbEntity
  8
0
  6
Continuous
 62
     7
370
    25
100
AcDbCircle
 10
5964.7320913462
 20
-371.282493018
 30
0.0
 40
5995.625000000038
100
AcDbArc
 50
178.9535308356
 51
180.0
  0
LINE
  5
D2
330
1F
100
AcDbEntity
  8
0
  6
Continuous
 62
     7
370
    25
100
AcDbLine
 10
-30.8929086538
 20
-371.282493018
 30
0.0
 11
-30.8929086538
 21
-396.282493018
 31
0.0
  0
LINE
  5
D3
330
1F
100
AcDbEntity
  8
0
  6
Continuous
 62
     7
370
    25
100
AcDbLine
 10
292.1070913462
 20
-396.282493018
 30
0.0
 11
292.1070913462
 21
-371.282493018
 31
0.0
  0
ARC
  5
D4
330
1F
100
AcDbEntity
  8
0
  6
Continuous
 62
     7
370
    25
100
AcDbCircle
 10
-5703.5179086539
 20
-396.282493018
 30
0.0
 40
5995.625000000038
100
AcDbArc
 50
358.9535308356
 51
0.0
  0
ARC
  5
D5
330
1F
100
AcDbEntity
  8
0
  6
Continuous
 62
     7
370
    25
100
AcDbCircle
 10
5964.7320913462
 20
-396.282493018
 30
0.0
 40
5995.625000000039
100
AcDbArc
 50
180.0
 51
181.0464691644
  0
CIRCLE
  5
D6
330
1F
100
AcDbEntity
  8
0
  6
Continuous
 62
     7
370
    25
100
AcDbCircle
 10
130.6070913462
 20
-273.782493018
 30
0.0
 40
5.0
  0
CIRCLE
  5
D7
330
1F
100
AcDbEntity
  8
0
  6
Continuous
 62
     7
370
    25
100
AcDbCircle
 10
130.6070913462
 20
-273.782493018
 30
0.0
 40
7.000000000000057
  0
CIRCLE
  5
D8
330
1F
100
AcDbEntity
  8
0
  6
Continuous
 62
     7
370
    25
100
AcDbCircle
 10
130.6070913462
 20
-493.782493018
 30
0.0
 40
7.0
  0
CIRCLE
  5
D9
330
1F
100
AcDbEntity
  8
0
  6
Continuous
 62
     7
370
    25
100
AcDbCircle
 10
130.6070913462
 20
-493.782493018
 30
0.0
 40
5.0
  0
LINE
  5
DA
330
1F
100
AcDbEntity
  8
0
  6
Continuous
 62
     7
370
    25
100
AcDbLine
 10
-29.8929086538
 20
-261.782493018
 30
0.0
 11
291.1070913462
 21
-261.782493018
 31
0.0
  0
LINE
  5
DB
330
1F
100
AcDbEntity
  8
0
  6
Continuous
 62
     7
370
    25
100
AcDbLine
 10
-29.8929086538
 20
-505.782493018
 30
0.0
 11
291.1070913462
 21
-505.782493018
 31
0.0
  0
LINE
  5
DC
330
1F
100
AcDbEntity
  8
0
  6
Continuous
 62
     1
370
    25
100
AcDbLine
 10
-30.8929086538
 20
-371.282493018
 30
0.0
 11
292.1070913462
 21
-371.282493018
 31
0.0
  0
LINE
  5
DD
330
1F
100
AcDbEntity
  8
0
  6
Continuous
 62
     1
370
    25
100
AcDbLine
 10
-30.8929086538
 20
-396.282493018
 30
0.0
 11
292.1070913462
 21
-396.282493018
 31
0.0
  0
INSERT
  5
E9
330
1F
100
AcDbEntity
  8
FORMAT
 62
     7
100
AcDbBlockReference
  2
SW_CENTERMARKSYMBOL_1
 10
130.6070913462
 20
-273.782493018
 30
0.0
  0
INSERT
  5
F5
330
1F
100
AcDbEntity
  8
FORMAT
 62
     7
100
AcDbBlockReference
  2
SW_CENTERMARKSYMBOL_2
 10
130.6070913462
 20
-493.782493018
 30
0.0
  0
SPLINE
  5
F6
330
1F
100
AcDbEntity
  8
0
  6
Continuous
 62
     7
370
    25
100
AcDbSpline
210
0.0
220
0.0
230
1.0
 70
     8
 71
     3
 72
    11
 73
     7
 74
     0
 42
0.00000001
 43
0.00000001
 40
0.0
 40
0.0
 40
0.0
 40
0.0
 40
0.1102264811606163
 40
0.5049601413441509
 40
0.8996368906832344
 40
1.0
 40
1.0
 40
1.0
 40
1.0
 10
536.3098947001779
 20
-209.5931126968383
 30
0.0
 10
533.4217275568964
 20
-211.2494580404661
 30
0.0
 10
520.1907029107239
 20
-218.8373658646695
 30
0.0
 10
496.7873450459288
 20
-232.6467521721525
 30
0.0
 10
473.6887010181298
 20
-246.3847847015192
 30
0.0
 10
460.9352358507835
 20
-254.1851992918971
 30
0.0
 10
458.3496310830515
 20
-255.766635308738
 30
0.0
  0
SPLINE
  5
F7
330
1F
100
AcDbEntity
  8
0
  6
Continuous
 62
     7
370
    25
100
AcDbSpline
210
0.0
220
0.0
230
1.0
 70
     8
 71
     3
 72
    10
 73
     6
 74
     0
 42
0.00000001
 43
0.00000001
 40
0.0
 40
0.0
 40
0.0
 40
0.0
 40
0.3206466297510351
 40
0.7154488629385017
 40
1.0
 40
1.0
 40
1.0
 40
1.0
 10
618.7966818892025
 20
-533.6979874687466
 30
0.0
 10
627.2837286495122
 20
-529.0348811810891
 30
0.0
 10
646.2206124055772
 20
-518.6302369973772
 30
0.0
 10
672.5430510891404
 20
-503.815542778036
 30
0.0
 10
690.3192041732998
 20
-493.5652889439155
 30
0.0
 10
697.7648499803164
 20
-489.2719101054487
 30
0.0
  0
LINE
  5
F8
330
1F
100
AcDbEntity
  8
0
  6
Continuous
 62
     7
370
    25
100
AcDbLine
 10
553.9715544412
 20
-199.3605473303
 30
0.0
 11
536.2938849115
 21
-209.5656487281
 31
0.0
  0
LINE
  5
F9
330
1F
100
AcDbEntity
  8
0
  6
Continuous
 62
     7
370
    25
100
AcDbLine
 10
697.7807602323
 20
-489.299431277
 30
0.0
 11
715.4584297619
 21
-479.0943298793
 31
0.0
  0
SPLINE
  5
FA
330
1F
100
AcDbEntity
  8
0
  6
Continuous
 62
     7
370
    25
100
AcDbSpline
210
0.0
220
0.0
230
1.0
 70
     8
 71
     3
 72
    10
 73
     6
 74
     0
 42
0.00000001
 43
0.00000001
 40
0.0
 40
0.0
 40
0.0
 40
0.0
 40
0.3206542511511777
 40
0.7154527914808829
 40
1.0
 40
1.0
 40
1.0
 40
1.0
 10
632.9564754345841
 20
-154.9615264782678
 30
0.0
 10
624.469147444606
 20
-159.6247870078409
 30
0.0
 10
605.531982317858
 20
-170.0295851706843
 30
0.0
 10
579.2092967818525
 20
-184.8444167848411
 30
0.0
 10
561.4331768747232
 20
-195.0946515548837
 30
0.0
 10
553.9875642298425
 20
-199.3880112990547
 30
0.0
  0
SPLINE
  5
FB
330
1F
100
AcDbEntity
  8
0
  6
Continuous
 62
     7
370
    25
100
AcDbSpline
210
0.0
220
0.0
230
1.0
 70
     8
 71
     3
 72
    11
 73
     7
 74
     0
 42
0.00000001
 43
0.00000001
 40
0.0
 40
0.0
 40
0.0
 40
0.0
 40
0.1102270049173863
 40
0.5049670778209135
 40
0.8996502389556578
 40
0.9999999999999999
 40
0.9999999999999999
 40
0.9999999999999999
 40
0.9999999999999999
 10
715.4425195099794
 20
-479.0668087076658
 30
0.0
 10
718.3306534499407
 20
-477.4104823889037
 30
0.0
 10
731.5616448672497
 20
-469.8225935432436
 30
0.0
 10
754.9649689960129
 20
-456.013225416381
 30
0.0
 10
778.0632262575193
 20
-442.2754274941013
 30
0.0
 10
790.8163063012421
 20
-434.4752501416599
 30
0.0
 10
793.40152533947
 20
-432.894050390388
 30
0.0
  0
LINE
  5
FC
330
1F
100
AcDbEntity
  8
0
  6
Continuous
 62
     7
370
    25
100
AcDbLine
 10
555.0944114062
 20
-258.0073120435
 30
0.0
 11
555.0944114062
 21
-246.4766053119
 31
0.0
  0
LINE
  5
FD
330
1F
100
AcDbEntity
  8
0
  6
Continuous
 62
     7
370
    25
100
AcDbLine
 10
541.0944114062
 20
-246.4766053119
 30
0.0
 11
541.0944114062
 21
-258.1377193146
 31
0.0
  0
LINE
  5
FE
330
1F
100
AcDbEntity
  8
0
  6
Continuous
 62
     7
370
    25
100
AcDbLine
 10
710.6579032673
 20
-168.3322358172
 30
0.0
 11
710.6579032673
 21
-156.6717130114
 31
0.0
  0
LINE
  5
FF
330
1F
100
AcDbEntity
  8
0
  6
Continuous
 62
     7
370
    25
100
AcDbLine
 10
696.6579032673
 20
-156.6717130114
 30
0.0
 11
696.6579032673
 21
-168.2017712075
 31
0.0
  0
LWPOLYLINE
  5
100
330
1F
100
AcDbEntity
  8
0
  6
Continuous
 62
     7
370
    25
100
AcDbPolyline
 90
      135
 70
   128
 43
0.0
 10
426.1184916515
 20
-328.6141331511
 10
426.2432301785
 20
-322.5433081719
 10
426.6171715569
 20
-316.6298482213
 10
427.2394937826
 20
-310.8867523675
 10
428.1088288562
 20
-305.3266451817
 10
429.2232657905
 20
-299.9617489861
 10
430.5803548112
 20
-294.8038569869
 10
432.1771127423
 20
-289.8643073502
 10
434.0100295632
 20
-285.1539582781
 10
436.075076125
 20
-280.6831641401
 10
438.3677130071
 20
-276.461752712
 10
440.8829004961
 20
-272.4990035724
 10
443.615109664
 20
-268.8036277037
 10
446.5583345222
 20
-265.3837483443
 10
449.7061052235
 20
-262.2468831312
 10
453.0515022849
 20
-259.3999275748
 10
456.5871717976
 20
-256.8491399014
 10
460.3053415926
 20
-254.6001272958
 10
464.1978383258
 20
-252.657833576
 10
468.2561054446
 20
-251.0265283249
 10
472.471221997
 20
-249.7097975056
 10
476.8339222422
 20
-248.7105355782
 10
481.3346160181
 20
-248.0309391373
 10
485.963409823
 20
-247.6725020833
 10
490.7101285636
 20
-247.6360123387
 10
495.5643379219
 20
-247.9215501159
 10
500.5153672923
 20
-248.5284877408
 10
505.5523332376
 20
-249.4554910328
 10
510.6641634136
 20
-250.7005222376
 10
515.8396209081
 20
-252.2608445063
 10
521.0673289423
 20
-254.1330279119
 10
526.3357958794
 20
-256.312956989
 10
531.6334404856
 20
-258.7958397804
 10
536.9486173885
 20
-261.5762183708
 10
542.2696426755
 20
-264.6479808847
 10
547.5848195783
 20
-268.0043749214
 10
552.8824641846
 20
-271.6380223984
 10
558.1509311217
 20
-275.5409357699
 10
563.3786391559
 20
-279.7045355853
 10
568.5540966504
 20
-284.1196693486
 10
573.6659268263
 20
-288.7766316376
 10
578.7028927716
 20
-293.6651854384
 10
583.653922142
 20
-298.7745846488
 10
588.5081315003
 20
-304.0935977005
 10
593.2548502409
 20
-309.6105322485
 10
597.8836440459
 20
-315.3132608732
 10
602.3843378217
 20
-321.1892477395
 10
606.7470380669
 20
-327.225576153
 10
610.9621546194
 20
-333.4089769538
 10
615.0204217381
 20
-339.7258576849
 10
618.9129184713
 20
-346.1623324716
 10
622.6310882663
 20
-352.7042525453
 10
626.166757779
 20
-359.3372373461
 10
629.5121548404
 20
-366.0467061337
 10
632.6599255418
 20
-372.8179100395
 10
635.6031503999
 20
-379.635964488
 10
638.3353595679
 20
-386.4858819156
 10
640.8505470569
 20
-393.3526047172
 10
643.1431839389
 20
-400.2210383459
 10
645.2082305007
 20
-407.0760844939
 10
647.0411473216
 20
-413.902674282
 10
648.6379052527
 20
-420.6858013843
 10
649.9949942735
 20
-427.4105550152
 10
651.1094312078
 20
-434.0621527069
 10
651.9787662814
 20
-440.6259728041
 10
652.601088507
 20
-447.0875866056
 10
652.9750298855
 20
-453.4327900818
 10
653.0997684124
 20
-459.6476350986
 10
652.9750298855
 20
-465.7184600778
 10
652.601088507
 20
-471.6319200284
 10
651.9787662814
 20
-477.3750158822
 10
651.1094312078
 20
-482.9351230681
 10
649.9949942735
 20
-488.3000192636
 10
648.6379052527
 20
-493.4579112628
 10
647.0411473216
 20
-498.3974608995
 10
645.2082305007
 20
-503.1078099716
 10
643.1431839389
 20
-507.5786041096
 10
640.8505470569
 20
-511.8000155377
 10
638.3353595679
 20
-515.7627646774
 10
635.6031503999
 20
-519.458140546
 10
632.6599255418
 20
-522.8780199054
 10
629.5121548404
 20
-526.0148851185
 10
626.166757779
 20
-528.8618406749
 10
622.6310882663
 20
-531.4126283483
 10
618.9129184713
 20
-533.6616409539
 10
615.0204217381
 20
-535.6039346738
 10
610.9621546194
 20
-537.2352399248
 10
606.7470380669
 20
-538.5519707441
 10
602.3843378217
 20
-539.5512326715
 10
597.8836440459
 20
-540.2308291124
 10
593.2548502409
 20
-540.5892661664
 10
588.5081315003
 20
-540.625755911
 10
583.653922142
 20
-540.3402181339
 10
578.7028927716
 20
-539.7332805089
 10
573.6659268263
 20
-538.8062772169
 10
568.5540966503
 20
-537.5612460121
 10
563.3786391559
 20
-536.0009237434
 10
558.1509311217
 20
-534.1287403378
 10
552.8824641846
 20
-531.9488112607
 10
547.5848195783
 20
-529.4659284693
 10
542.2696426755
 20
-526.6855498789
 10
536.9486173885
 20
-523.613787365
 10
531.6334404856
 20
-520.2573933283
 10
526.3357958794
 20
-516.6237458513
 10
521.0673289423
 20
-512.7208324798
 10
515.8396209081
 20
-508.5572326644
 10
510.6641634136
 20
-504.1420989011
 10
505.5523332376
 20
-499.4851366121
 10
500.5153672923
 20
-494.5965828113
 10
495.5643379219
 20
-489.4871836009
 10
490.7101285636
 20
-484.1681705492
 10
485.963409823
 20
-478.6512360012
 10
481.3346160181
 20
-472.9485073765
 10
476.8339222422
 20
-467.0725205102
 10
472.471221997
 20
-461.0361920967
 10
468.2561054446
 20
-454.8527912959
 10
464.1978383258
 20
-448.5359105648
 10
460.3053415926
 20
-442.0994357781
 10
456.5871717976
 20
-435.5575157044
 10
453.0515022849
 20
-428.9245309036
 10
449.7061052235
 20
-422.2150621161
 10
446.5583345222
 20
-415.4438582102
 10
443.615109664
 20
-408.6258037618
 10
440.8829004961
 20
-401.7758863341
 10
438.3677130071
 20
-394.9091635325
 10
436.075076125
 20
-388.0407299038
 10
434.0100295632
 20
-381.1856837558
 10
432.1771127423
 20
-374.3590939677
 10
430.5803548112
 20
-367.5759668655
 10
429.2232657905
 20
-360.8512132345
 10
428.1088288562
 20
-354.1996155428
 10
427.2394937826
 20
-347.6357954456
 10
426.6171715569
 20
-341.1741816442
 10
426.2432301785
 20
-334.8289781679
 10
426.1184916515
 20
-328.6141331511
  0
SPLINE
  5
101
330
1F
100
AcDbEntity
  8
0
  6
Continuous
 62
     7
370
    25
100
AcDbSpline
210
0.0
220
0.0
230
1.0
 70
     8
 71
     3
 72
    12
 73
     8
 74
     0
 42
0.00000001
 43
0.00000001
 40
0.0
 40
0.0
 40
0.0
 40
0.0
 40
0.2452749339199401
 40
0.490552207508897
 40
0.7357762963754356
 40
0.9810284422143992
 40
1.0
 40
1.0
 40
1.0
 40
1.0
 10
546.7359880191173
 20
-262.090772501686
 30
0.0
 10
545.9801230770287
 20
-261.9522571774218
 30
0.0
 10
544.4683859826823
 20
-261.6752252076005
 30
0.0
 10
542.629644804052
 20
-260.7521941859108
 30
0.0
 10
541.4794104482867
 20
-259.5834629899492
 30
0.0
 10
540.9843605048928
 20
-258.6515551463692
 30
0.0
 10
541.1133664499091
 20
-258.1743209121473
 30
0.0
 10
541.1226292212161
 20
-258.1400549597456
 30
0.0
  0
SPLINE
  5
102
330
1F
100
AcDbEntity
  8
0
  6
Continuous
 62
     7
370
    25
100
AcDbSpline
210
0.0
220
0.0
230
1.0
 70
     8
 71
     3
 72
    13
 73
     9
 74
     0
 42
0.00000001
 43
0.00000001
 40
0.0
 40
0.0
 40
0.0
 40
0.0
 40
0.1156356809715307
 40
0.3067311663151767
 40
0.4977665401424881
 40
0.688594596316649
 40
0.8793498153161238
 40
1.0
 40
1.0
 40
1.0
 40
1.0
 10
554.9996686654019
 20
-258.0053688044569
 30
0.0
 10
555.0086609407343
 20
-258.2937374078109
 30
0.0
 10
555.0325135360348
 20
-259.0586538876752
 30
0.0
 10
554.1862945965768
 20
-260.2299956872567
 30
0.0
 10
552.6503599919297
 20
-261.3183393730924
 30
0.0
 10
550.5707685487125
 20
-262.0127671500887
 30
0.0
 10
548.4997050223539
 20
-262.2416035271922
 30
0.0
 10
547.2285005288495
 20
-262.1328915983332
 30
0.0
 10
546.7359880191173
 20
-262.090772501686
 30
0.0
  0
LWPOLYLINE
  5
103
330
1F
100
AcDbEntity
  8
0
  6
Continuous
 62
     7
370
    25
100
AcDbPolyline
 90
      126
 70
   128
 43
0.0
 10
440.1545612581
 20
-336.7169836609
 10
440.2801766942
 20
-331.0191175697
 10
440.656705687
 20
-325.4806772782
 10
441.2831970915
 20
-320.1156533671
 10
442.1580683362
 20
-314.9375983526
 10
443.2791094203
 20
-309.959592451
 10
444.6434884967
 20
-305.1942105372
 10
446.2477590256
 20
-300.6534903795
 10
448.0878684802
 20
-296.3489022311
 10
450.1591685845
 20
-292.2913198553
 10
452.4564270545
 20
-288.4909930572
 10
454.9738408161
 20
-284.9575217923
 10
457.7050506636
 20
-281.6998319156
 10
460.6431573238
 20
-278.7261526344
 10
463.7807388844
 20
-276.0439957207
 10
467.1098695421
 20
-273.6601365356
 10
470.6221396238
 20
-271.5805969144
 10
474.3086768305
 20
-269.8106299545
 10
478.1601686493
 20
-268.3547067462
 10
482.1668858775
 20
-267.2165050778
 10
486.3187071998
 20
-266.3989001455
 10
490.6051447552
 20
-265.9039572903
 10
495.0153706303
 20
-265.7329267809
 10
499.5382442118
 20
-265.8862406551
 10
504.1623403287
 20
-266.3635116288
 10
508.8759781126
 20
-267.1635340741
 10
513.6672505056
 20
-268.2842870649
 10
518.5240543377
 20
-269.7229394818
 10
523.4341209009
 20
-271.475857164
 10
528.385046941
 20
-273.5386120893
 10
533.3643259891
 20
-275.9059935597
 10
538.3593799542
 20
-278.5720213641
 10
543.3575908964
 20
-281.5299608851
 10
548.3463329012
 20
-284.7723401105
 10
553.3130039732
 20
-288.2909685091
 10
558.2450578704
 20
-292.0769577202
 10
563.1300357964
 20
-296.1207440064
 10
567.9555978732
 20
-300.4121124127
 10
572.709554312
 20
-304.94022257
 10
577.3798962064
 20
-309.6936360791
 10
581.9548258674
 20
-314.6603454048
 10
586.4227866256
 20
-319.8278042085
 10
590.7724920245
 20
-325.1829590406
 10
594.9929543305
 20
-330.7122823153
 10
599.0735122897
 20
-336.4018064822
 10
603.0038580586
 20
-342.2371593094
 10
606.7740632425
 20
-348.2036001892
 10
610.3746039761
 20
-354.2860573742
 10
613.7963849808
 20
-360.4691660496
 10
617.030762541
 20
-366.7373071463
 10
620.0695663383
 20
-373.0746467959
 10
622.9051200904
 20
-379.4651763284
 10
625.5302609425
 20
-385.8927527116
 10
627.9383575611
 20
-392.3411393297
 10
630.123326885
 20
-398.7940469985
 10
632.0796494921
 20
-405.2351751132
 10
633.8023835417
 20
-411.6482528252
 10
635.2871772581
 20
-418.0170801434
 10
636.5302799235
 20
-424.3255688576
 10
637.5285513527
 20
-430.5577831775
 10
638.2794698254
 20
-436.697979989
 10
638.7811384564
 20
-442.7306486221
 10
639.0322899872
 20
-448.6405500321
 10
639.0322899872
 20
-454.4127552953
 10
638.7811384564
 20
-460.0326833202
 10
638.2794698254
 20
-465.4861376808
 10
637.5285513527
 20
-470.7593424782
 10
636.5302799235
 20
-475.8389771394
 10
635.2871772581
 20
-480.7122100663
 10
633.8023835417
 20
-485.3667310496
 10
632.0796494921
 20
-489.7907823655
 10
630.123326885
 20
-493.9731884762
 10
627.9383575611
 20
-497.9033842611
 10
625.5302609425
 20
-501.5714417044
 10
622.9051200904
 20
-504.9680949748
 10
620.0695663383
 20
-508.0847638312
 10
617.030762541
 20
-510.9135752976
 10
613.7963849808
 20
-513.4473835508
 10
610.3746039761
 20
-515.6797879712
 10
606.7740632425
 20
-517.6051493115
 10
603.0038580586
 20
-519.2186039418
 10
599.0735122897
 20
-520.5160761358
 10
594.9929543305
 20
-521.4942883661
 10
590.7724920244
 20
-522.1507695836
 10
586.4227866256
 20
-522.4838614599
 10
581.9548258674
 20
-522.492722576
 10
577.3798962064
 20
-522.1773305478
 10
572.709554312
 20
-521.5384820831
 10
567.9555978732
 20
-520.5777909685
 10
563.1300357964
 20
-519.2976839932
 10
558.2450578704
 20
-517.7013948184
 10
553.3130039732
 20
-515.7929558091
 10
548.3463329012
 20
-513.577187848
 10
543.3575908964
 20
-511.0596881572
 10
538.3593799542
 20
-508.2468161594
 10
533.3643259891
 20
-505.1456774134
 10
528.385046941
 20
-501.7641056648
 10
523.4341209009
 20
-498.1106430573
 10
518.5240543377
 20
-494.1945185545
 10
513.6672505056
 20
-490.0256246269
 10
508.8759781126
 20
-485.6144922622
 10
504.1623403287
 20
-480.9722643637
 10
499.5382442118
 20
-476.110667602
 10
495.0153706303
 20
-471.0419827923
 10
490.6051447552
 20
-465.7790138724
 10
486.3187071998
 20
-460.3350555586
 10
482.1668858775
 20
-454.723859762
 10
478.1601686493
 20
-448.9596008502
 10
474.3086768305
 20
-443.0568398415
 10
470.6221396238
 20
-437.0304876225
 10
467.1098695421
 20
-430.8957672819
 10
463.7807388844
 20
-424.6681756557
 10
460.6431573238
 20
-418.3634441808
 10
457.7050506636
 20
-411.9974991561
 10
454.9738408161
 20
-405.5864215112
 10
452.4564270545
 20
-399.1464061847
 10
450.1591685845
 20
-392.6937212141
 10
448.0878684802
 20
-386.2446666418
 10
446.2477590256
 20
-379.8155333393
 10
444.6434884967
 20
-373.4225618553
 10
443.2791094203
 20
-367.0819013906
 10
442.1580683362
 20
-360.8095690038
 10
441.2831970915
 20
-354.6214091508
 10
440.656705687
 20
-348.5330536606
 10
440.2801766942
 20
-342.5598822475
 10
440.1545612581
 20
-336.7169836609
  0
LWPOLYLINE
  5
104
330
1F
100
AcDbEntity
  8
0
  6
Continuous
 62
     7
370
    25
100
AcDbPolyline
 90
       15
 70
   128
 43
0.0
 10
632.9429400509
 20
-154.9414633484
 10
636.7318929353
 20
-153.0560439336
 10
640.7901600541
 20
-151.4247386825
 10
645.0052766065
 20
-150.1080078632
 10
649.3679768517
 20
-149.1087459358
 10
653.8686706276
 20
-148.4291494949
 10
658.4974644325
 20
-148.0707124409
 10
663.2441831732
 20
-148.0342226963
 10
668.0983925315
 20
-148.3197604735
 10
673.0494219018
 20
-148.9266980984
 10
678.0863878471
 20
-149.8537013905
 10
683.1982180231
 20
-151.0987325952
 10
688.3736755176
 20
-152.6590548639
 10
693.6013835518
 20
-154.5312382695
 10
696.8130870813
 20
-155.8255400939
  0
LWPOLYLINE
  5
105
330
1F
100
AcDbEntity
  8
0
  6
Continuous
 62
     7
370
    25
100
AcDbPolyline
 90
       52
 70
   128
 43
0.0
 10
710.6579032673
 20
-162.6280832628
 10
714.803697285
 20
-165.0461912423
 10
720.1188741878
 20
-168.402585279
 10
725.4165187941
 20
-172.036232756
 10
730.6849857312
 20
-175.9391461276
 10
735.9126937654
 20
-180.102745943
 10
741.0881512599
 20
-184.5178797063
 10
746.1999814358
 20
-189.1748419952
 10
751.2369473812
 20
-194.063395796
 10
756.1879767515
 20
-199.1727950065
 10
761.0421861098
 20
-204.4918080582
 10
765.7889048504
 20
-210.0087426061
 10
770.4176986554
 20
-215.7114712308
 10
774.9183924313
 20
-221.5874580971
 10
779.2810926764
 20
-227.6237865106
 10
783.4962092289
 20
-233.8071873114
 10
787.5544763477
 20
-240.1240680425
 10
791.4469730808
 20
-246.5605428292
 10
795.1651428759
 20
-253.102462903
 10
798.7008123885
 20
-259.7354477037
 10
802.0462094499
 20
-266.4449164913
 10
805.1939801513
 20
-273.2161203972
 10
808.1372050094
 20
-280.0341748456
 10
810.8694141774
 20
-286.8840922732
 10
813.3846016664
 20
-293.7508150749
 10
815.6772385485
 20
-300.6192487035
 10
817.7422851102
 20
-307.4742948515
 10
819.5752019311
 20
-314.3008846396
 10
821.1719598622
 20
-321.0840117419
 10
822.529048883
 20
-327.8087653729
 10
823.6434858173
 20
-334.4603630646
 10
824.5128208909
 20
-341.0241831617
 10
825.1351431165
 20
-347.4857969632
 10
825.509084495
 20
-353.8310004395
 10
825.6338230219
 20
-360.0458454563
 10
825.509084495
 20
-366.1166704354
 10
825.1351431165
 20
-372.0301303861
 10
824.5128208909
 20
-377.7732262398
 10
823.6434858173
 20
-383.3333334257
 10
822.529048883
 20
-388.6982296213
 10
821.1719598622
 20
-393.8561216204
 10
819.5752019311
 20
-398.7956712571
 10
817.7422851102
 20
-403.5060203292
 10
815.6772385485
 20
-407.9768144672
 10
813.3846016664
 20
-412.1982258953
 10
810.8694141774
 20
-416.160975035
 10
808.1372050094
 20
-419.8563509036
 10
805.1939801513
 20
-423.276230263
 10
802.0462094499
 20
-426.4130954762
 10
798.7008123885
 20
-429.2600510326
 10
795.1651428759
 20
-431.810838706
 10
793.4164649
 20
-432.9199889908
  0
SPLINE
  5
106
330
1F
100
AcDbEntity
  8
0
  6
Continuous
 62
     7
370
    25
100
AcDbSpline
210
0.0
220
0.0
230
1.0
 70
     8
 71
     3
 72
    12
 73
     8
 74
     0
 42
0.00000001
 43
0.00000001
 40
0.0
 40
0.0
 40
0.0
 40
0.0
 40
0.2441665034651711
 40
0.4883429675438848
 40
0.7323100512505438
 40
0.9763681264001222
 40
1.0
 40
1.0
 40
1.0
 40
1.0
 10
702.3346355856517
 20
-172.1361546599373
 30
0.0
 10
701.5782573402662
 20
-171.9900387248853
 30
0.0
 10
700.0654699935374
 20
-171.6978008940768
 30
0.0
 10
698.2200451822615
 20
-170.7761808001887
 30
0.0
 10
697.0568340249888
 20
-169.6286434127516
 30
0.0
 10
696.5535218788846
 20
-168.7128572965776
 30
0.0
 10
696.6811670498122
 20
-168.245733330558
 30
0.0
 10
696.6924356632177
 20
-168.2044952692411
 30
0.0
  0
SPLINE
  5
107
330
1F
100
AcDbEntity
  8
0
  6
Continuous
 62
     7
370
    25
100
AcDbSpline
210
0.0
220
0.0
230
1.0
 70
     8
 71
     3
 72
    13
 73
     9
 74
     0
 42
0.00000001
 43
0.00000001
 40
0.0
 40
0.0
 40
0.0
 40
0.0
 40
0.1129083047247759
 40
0.3043580518112475
 40
0.495698239665559
 40
0.687007704230741
 40
0.8784818061994397
 40
1.0
 40
1.0
 40
1.0
 40
1.0
 10
710.5617711191131
 20
-168.3305630427712
 30
0.0
 10
710.572661367932
 20
-168.6028531585928
 30
0.0
 10
710.602017356602
 20
-169.3368442443763
 30
0.0
 10
709.7689640090199
 20
-170.4513319422468
 30
0.0
 10
708.2452052826986
 20
-171.4812459960166
 30
0.0
 10
706.1737444690896
 20
-172.1212999738251
 30
0.0
 10
704.1038723304514
 20
-172.3108365890198
 30
0.0
 10
702.8294325095338
 20
-172.18500741038
 30
0.0
 10
702.3346355856517
 20
-172.1361546599373
 30
0.0
  0
LWPOLYLINE
  5
108
330
1F
100
AcDbEntity
  8
0
  6
Continuous
 62
     7
370
    25
100
AcDbPolyline
 90
       29
 70
   128
 43
0.0
 10
553.0441588745
 20
-243.6191769206
 10
554.0214808008
 20
-244.3266562505
 10
554.7015947184
 20
-245.1419430038
 10
555.0503968755
 20
-246.0241552982
 10
555.0503968755
 20
-246.9290553256
 10
554.7015947184
 20
-247.8112676201
 10
554.0214808008
 20
-248.6265543734
 10
553.0441588745
 20
-249.3340337033
 10
551.8186359418
 20
-249.8982296421
 10
550.4063648399
 20
-250.2908510495
 10
548.8781627389
 20
-250.4922102488
 10
547.3106600735
 20
-250.4922102488
 10
545.7824579725
 20
-250.2908510495
 10
544.3701868706
 20
-249.8982296421
 10
543.1446639379
 20
-249.3340337033
 10
542.1673420116
 20
-248.6265543734
 10
541.4872280941
 20
-247.8112676201
 10
541.138425937
 20
-246.9290553256
 10
541.138425937
 20
-246.0241552982
 10
541.4872280941
 20
-245.1419430038
 10
542.1673420116
 20
-244.3266562505
 10
543.1446639379
 20
-243.6191769206
 10
544.3701868706
 20
-243.0549809818
 10
545.7824579725
 20
-242.6623595743
 10
547.3106600735
 20
-242.4610003751
 10
548.8781627389
 20
-242.4610003751
 10
550.4063648399
 20
-242.6623595743
 10
551.8186359418
 20
-243.0549809818
 10
553.0441588745
 20
-243.6191769206
  0
LWPOLYLINE
  5
109
330
1F
100
AcDbEntity
  8
0
  6
Continuous
 62
     7
370
    25
100
AcDbPolyline
 90
       24
 70
   128
 43
0.0
 10
551.6299453121
 20
-244.4355850324
 10
552.4527137564
 20
-245.0619322822
 10
552.9522468532
 20
-245.793199359
 10
553.091496518
 20
-246.5751515289
 10
552.8601352403
 20
-247.3497949767
 10
552.2753220275
 20
-248.0596779417
 10
551.3804298003
 20
-248.6521516517
 10
550.2418286214
 20
-249.0832750423
 10
548.9439633314
 20
-249.3210736636
 10
547.5830906615
 20
-249.3479110799
 10
546.2601403121
 20
-249.1617968827
 10
545.0732294586
 20
-248.7765343107
 10
544.1103858491
 20
-248.2206965263
 10
543.4430191895
 20
-247.5355074752
 10
543.1206250119
 20
-246.7717844948
 10
543.1671138176
 20
-245.9861694248
 10
543.5790377446
 20
-245.2369277409
 10
544.3258462796
 20
-244.5796272713
 10
545.35215205
 20
-244.0630169849
 10
546.5818386518
 20
-243.7254115033
 10
547.9237058553
 20
-243.5918494806
 10
549.2782335085
 20
-243.6722366011
 10
550.5449624921
 20
-243.9606109196
 10
551.6299453121
 20
-244.4355850324
  0
LWPOLYLINE
  5
10A
330
1F
100
AcDbEntity
  8
0
  6
Continuous
 62
     7
370
    25
100
AcDbPolyline
 90
       29
 70
   128
 43
0.0
 10
698.7081557989
 20
-159.5291414028
 10
697.7308338727
 20
-158.8216620729
 10
697.0507199551
 20
-158.0063753196
 10
696.701917798
 20
-157.1241630252
 10
696.701917798
 20
-156.2192629977
 10
697.0507199551
 20
-155.3370507033
 10
697.7308338727
 20
-154.52176395
 10
698.7081557989
 20
-153.8142846201
 10
699.9336787316
 20
-153.2500886813
 10
701.3459498336
 20
-152.8574672738
 10
702.8741519345
 20
-152.6561080746
 10
704.4416546
 20
-152.6561080746
 10
705.9698567009
 20
-152.8574672738
 10
707.3821278029
 20
-153.2500886813
 10
708.6076507356
 20
-153.8142846201
 10
709.5849726618
 20
-154.52176395
 10
710.2650865794
 20
-155.3370507033
 10
710.6138887365
 20
-156.2192629977
 10
710.6138887365
 20
-157.1241630252
 10
710.2650865794
 20
-158.0063753196
 10
709.5849726618
 20
-158.8216620729
 10
708.6076507356
 20
-159.5291414028
 10
707.3821278029
 20
-160.0933373416
 10
705.9698567009
 20
-160.485958749
 10
704.4416546
 20
-160.6873179483
 10
702.8741519345
 20
-160.6873179483
 10
701.3459498336
 20
-160.485958749
 10
699.9336787316
 20
-160.0933373416
 10
698.7081557989
 20
-159.5291414028
  0
LWPOLYLINE
  5
10B
330
1F
100
AcDbEntity
  8
0
  6
Continuous
 62
     7
370
    25
100
AcDbPolyline
 90
       24
 70
   128
 43
0.0
 10
700.1223693613
 20
-158.712733291
 10
699.2996009171
 20
-158.0863860412
 10
698.8000678203
 20
-157.3551189644
 10
698.6608181554
 20
-156.5731667945
 10
698.8921794332
 20
-155.7985233467
 10
699.476992646
 20
-155.0886403817
 10
700.3718848732
 20
-154.4961666716
 10
701.5104860521
 20
-154.0650432811
 10
702.8083513421
 20
-153.8272446598
 10
704.169224012
 20
-153.8004072435
 10
705.4921743613
 20
-153.9865214407
 10
706.6790852149
 20
-154.3717840127
 10
707.6419288243
 20
-154.9276217971
 10
708.3092954839
 20
-155.6128108482
 10
708.6316896615
 20
-156.3765338286
 10
708.5852008558
 20
-157.1621488986
 10
708.1732769289
 20
-157.9113905825
 10
707.4264683939
 20
-158.568691052
 10
706.4001626235
 20
-159.0853013384
 10
705.1704760217
 20
-159.42290682
 10
703.8286088182
 20
-159.5564688427
 10
702.4740811649
 20
-159.4760817223
 10
701.2073521814
 20
-159.1877074037
 10
700.1223693613
 20
-158.712733291
  0
LWPOLYLINE
  5
10C
330
1F
100
AcDbEntity
  8
0
  6
Continuous
 62
     1
370
    25
100
AcDbPolyline
 90
       69
 70
   128
 43
0.0
 10
536.293775847
 20
-209.5657116899
 10
537.2394295317
 20
-209.0324326637
 10
541.156178581
 20
-207.0780374253
 10
545.2397308531
 20
-205.4365682786
 10
549.481109814
 20
-204.111633529
 10
553.8709919922
 20
-203.1061456706
 10
558.3997274738
 20
-202.4223149839
 10
563.0573611155
 20
-202.0616446773
 10
567.8336544277
 20
-202.0249275822
 10
572.7181080811
 20
-202.312244411
 10
577.6999849865
 20
-202.9229635787
 10
582.7683338972
 20
-203.8557425922
 10
587.9120134824
 20
-205.1085310007
 10
593.1197168179
 20
-206.6785749035
 10
598.3799962418
 20
-208.5624230032
 10
603.681288518
 20
-210.755934193
 10
609.0119402558
 20
-213.2542866591
 10
614.3602335256
 20
-216.0519884806
 10
619.7144116182
 20
-219.1428897017
 10
625.062704888
 20
-222.5201958508
 10
630.3933566258
 20
-226.176482876
 10
635.694648902
 20
-230.1037134647
 10
640.9549283259
 20
-234.293254712
 10
646.1626316614
 20
-238.7358970969
 10
651.3063112466
 20
-243.4218747272
 10
656.3746601573
 20
-248.3408868071
 10
661.3565370627
 20
-253.4821202806
 10
666.2409907161
 20
-258.8342736005
 10
671.0172840283
 20
-264.3855815725
 10
675.67491767
 20
-270.1238412166
 10
680.2036531516
 20
-276.036438593
 10
684.5935353298
 20
-282.1103765293
 10
688.8349142907
 20
-288.3323031918
 10
692.9184665628
 20
-294.6885414352
 10
696.8352156121
 20
-301.1651188686
 10
700.5765515741
 20
-307.747798569
 10
704.1342501803
 20
-314.4221103778
 10
707.5004908371
 20
-321.1733827092
 10
710.667873817
 20
-327.9867748014
 10
713.6294365247
 20
-334.8473093399
 10
716.3786688027
 20
-341.7399053808
 10
718.9095272418
 20
-348.649411502
 10
721.2164484658
 20
-355.5606391097
 10
723.2943613613
 20
-362.4583958256
 10
725.1386982247
 20
-369.3275188834
 10
726.7454048033
 20
-376.1529084599
 10
728.1109492074
 20
-382.9195608673
 10
729.232329674
 20
-389.6126015353
 10
730.1070811655
 20
-396.2173177078
 10
730.7332807882
 20
-402.7191907853
 10
731.1095520195
 20
-409.1039282397
 10
731.2350677335
 20
-415.3574950323
 10
731.1095520195
 20
-421.4661444661
 10
730.7332807882
 20
-427.416448404
 10
730.1070811655
 20
-433.1953267864
 10
729.232329674
 20
-438.7900763847
 10
728.1109492074
 20
-444.1883987248
 10
726.7454048033
 20
-449.3784271227
 10
725.1386982247
 20
-454.3487527696
 10
723.2943613613
 20
-459.088449811
 10
721.2164484658
 20
-463.5870993642
 10
718.9095272418
 20
-467.8348124211
 10
716.3786688027
 20
-471.8222515865
 10
713.6294365247
 20
-475.5406516039
 10
710.667873817
 20
-478.9818386228
 10
707.5004908371
 20
-482.1382481676
 10
704.1342501803
 20
-485.0029417648
 10
700.5765515741
 20
-487.5696221963
 10
697.7808220491
 20
-489.2993955909
  0
LWPOLYLINE
  5
10D
330
1F
100
AcDbEntity
  8
0
  6
Continuous
 62
     1
370
    25
100
AcDbPolyline
 90
       69
 70
   128
 43
0.0
 10
553.9715544412
 20
-199.3605473303
 10
554.9170990613
 20
-198.8273312659
 10
558.8338481106
 20
-196.8729360275
 10
562.9174003828
 20
-195.2314668808
 10
567.1587793437
 20
-193.9065321312
 10
571.5486615218
 20
-192.9010442728
 10
576.0773970035
 20
-192.2172135861
 10
580.7350306452
 20
-191.8565432795
 10
585.5113239574
 20
-191.8198261844
 10
590.3957776108
 20
-192.1071430132
 10
595.3776545162
 20
-192.7178621809
 10
600.4460034269
 20
-193.6506411944
 10
605.589683012
 20
-194.903429603
 10
610.7973863476
 20
-196.4734735057
 10
616.0576657714
 20
-198.3573216054
 10
621.3589580477
 20
-200.5508327952
 10
626.6896097855
 20
-203.0491852613
 10
632.0379030553
 20
-205.8468870828
 10
637.3920811478
 20
-208.9377883039
 10
642.7403744177
 20
-212.315094453
 10
648.0710261554
 20
-215.9713814782
 10
653.3723184317
 20
-219.898612067
 10
658.6325978555
 20
-224.0881533142
 10
663.8403011911
 20
-228.5307956991
 10
668.9839807763
 20
-233.2167733294
 10
674.052329687
 20
-238.1357854094
 10
679.0342065923
 20
-243.2770188828
 10
683.9186602457
 20
-248.6291722028
 10
688.6949535579
 20
-254.1804801747
 10
693.3525871996
 20
-259.9187398189
 10
697.8813226813
 20
-265.8313371952
 10
702.2712048595
 20
-271.9052751315
 10
706.5125838203
 20
-278.127201794
 10
710.5961360925
 20
-284.4834400375
 10
714.5128851418
 20
-290.9600174708
 10
718.2542211037
 20
-297.5426971712
 10
721.81191971
 20
-304.21700898
 10
725.1781603668
 20
-310.9682813115
 10
728.3455433466
 20
-317.7816734037
 10
731.3071060544
 20
-324.6422079421
 10
734.0563383324
 20
-331.534803983
 10
736.5871967715
 20
-338.4443101043
 10
738.8941179955
 20
-345.355537712
 10
740.972030891
 20
-352.2532944278
 10
742.8163677544
 20
-359.1224174856
 10
744.423074333
 20
-365.9478070621
 10
745.7886187371
 20
-372.7144594696
 10
746.9099992037
 20
-379.4075001375
 10
747.7847506952
 20
-386.01221631
 10
748.4109503179
 20
-392.5140893875
 10
748.7872215492
 20
-398.8988268419
 10
748.9127372632
 20
-405.1523936345
 10
748.7872215492
 20
-411.2610430683
 10
748.4109503179
 20
-417.2113470062
 10
747.7847506952
 20
-422.9902253887
 10
746.9099992037
 20
-428.5849749869
 10
745.7886187371
 20
-433.983297327
 10
744.423074333
 20
-439.1733257249
 10
742.8163677544
 20
-444.1436513718
 10
740.972030891
 20
-448.8833484132
 10
738.8941179955
 20
-453.3819979664
 10
736.5871967715
 20
-457.6297110233
 10
734.0563383324
 20
-461.6171501888
 10
731.3071060544
 20
-465.3355502061
 10
728.3455433466
 20
-468.7767372251
 10
725.1781603668
 20
-471.9331467698
 10
721.81191971
 20
-474.797840367
 10
718.2542211037
 20
-477.3645207985
 10
715.4584297619
 20
-479.0943298793
  0
ENDSEC
  0
SECTION
  2
OBJECTS
  0
DICTIONARY
  5
C
330
0
100
AcDbDictionary
281
     1
  3
ACAD_GROUP
350
D
  3
ACAD_LAYOUT
350
1A
  3
ACAD_MLINESTYLE
350
17
  3
ACAD_PLOTSETTINGS
350
19
  3
ACAD_PLOTSTYLENAME
350
E
  3
ACAD_SCALELIST
350
47
  3
DWGPROPS
350
10E
  0
DICTIONARY
  5
D
102
{ACAD_REACTORS
330
C
102
}
330
C
100
AcDbDictionary
281
     1
  0
DICTIONARY
  5
1A
102
{ACAD_REACTORS
330
C
102
}
330
C
100
AcDbDictionary
281
     1
  3
Layout1
350
1E
  3
Layout2
350
26
  3
Model
350
22
  0
DICTIONARY
  5
17
102
{ACAD_REACTORS
330
C
102
}
330
C
100
AcDbDictionary
281
     1
  3
Standard
350
18
  0
DICTIONARY
  5
19
102
{ACAD_REACTORS
330
C
102
}
330
C
100
AcDbDictionary
281
     1
  0
ACDBDICTIONARYWDFLT
  5
E
102
{ACAD_REACTORS
330
C
102
}
330
C
100
AcDbDictionary
281
     1
  3
Normal
350
F
100
AcDbDictionaryWithDefault
340
F
  0
DICTIONARY
  5
47
102
{ACAD_REACTORS
330
C
102
}
330
C
100
AcDbDictionary
281
     1
  3
A0
350
48
  3
A1
350
49
  3
A2
350
4A
  3
A3
350
4B
  3
A4
350
4C
  3
A5
350
4D
  3
A6
350
4E
  3
A7
350
4F
  3
A8
350
50
  3
A9
350
51
  3
B0
350
52
  3
B1
350
53
  3
B2
350
54
  3
B3
350
55
  3
B4
350
56
  3
B5
350
57
  3
B6
350
58
  3
B7
350
59
  3
B8
350
5A
  3
B9
350
5B
  3
C0
350
5C
  3
C1
350
5D
  3
C2
350
5E
  3
C3
350
5F
  3
C4
350
60
  3
C5
350
61
  3
C6
350
62
  3
C7
350
63
  3
C8
350
64
  3
C9
350
65
  3
D0
350
66
  3
D1
350
67
  3
D2
350
68
  0
XRECORD
  5
10E
102
{ACAD_REACTORS
330
C
102
}
330
C
100
AcDbXrecord
280
     1
  1
DWGPROPS COOKIE
  2

  3

  4

  6

  7

  8
b.kav
  9

300
=
301
=
302
=
303
=
304
=
305
=
306
=
307
=
308
=
309
=
 40
0.0
 41
2460616.541911597
 42
2460616.541911852
  1

 90
        0
  0
LAYOUT
  5
1E
102
{ACAD_REACTORS
330
1A
102
}
330
1A
100
AcDbPlotSettings
  1

  2
none_device
  4

  6

 40
0.0
 41
0.0
 42
0.0
 43
0.0
 44
0.0
 45
0.0
 46
0.0
 47
0.0
 48
0.0
 49
0.0
140
0.0
141
0.0
142
1.0
143
1.0
 70
   688
 72
     1
 73
     0
 74
     5
  7

 75
    16
147
1.0
148
0.0
149
0.0
100
AcDbLayout
  1
Layout1
 70
     1
 71
     1
 10
0.0
 20
0.0
 11
420.0
 21
297.0
 12
0.0
 22
0.0
 32
0.0
 14
1.0000000000E+20
 24
1.0000000000E+20
 34
1.0000000000E+20
 15
-1.0000000000E+20
 25
-1.0000000000E+20
 35
-1.0000000000E+20
146
0.0
 13
0.0
 23
0.0
 33
0.0
 16
1.0
 26
0.0
 36
0.0
 17
0.0
 27
1.0
 37
0.0
 76
     0
330
1B
  0
LAYOUT
  5
26
102
{ACAD_REACTORS
330
1A
102
}
330
1A
100
AcDbPlotSettings
  1

  2
none_device
  4

  6

 40
0.0
 41
0.0
 42
0.0
 43
0.0
 44
0.0
 45
0.0
 46
0.0
 47
0.0
 48
0.0
 49
0.0
140
0.0
141
0.0
142
1.0
143
1.0
 70
   688
 72
     1
 73
     0
 74
     5
  7

 75
    16
147
1.0
148
0.0
149
0.0
100
AcDbLayout
  1
Layout2
 70
     1
 71
     2
 10
0.0
 20
0.0
 11
0.0
 21
0.0
 12
0.0
 22
0.0
 32
0.0
 14
0.0
 24
0.0
 34
0.0
 15
0.0
 25
0.0
 35
0.0
146
0.0
 13
0.0
 23
0.0
 33
0.0
 16
1.0
 26
0.0
 36
0.0
 17
0.0
 27
1.0
 37
0.0
 76
     0
330
23
  0
LAYOUT
  5
22
102
{ACAD_REACTORS
330
1A
102
}
330
1A
100
AcDbPlotSettings
  1

  2
none_device
  4
Letter_(8.50_x_11.00_Inches)
  6

 40
6.35
 41
6.35
 42
6.35000508
 43
6.35000508
 44
215.9
 45
279.4
 46
0.0
 47
0.0
 48
0.0
 49
0.0
140
0.0
141
0.0
142
1.0
143
1.0
 70
  1712
 72
     1
 73
     0
 74
     0
  7

 75
     0
147
1.0
148
0.0
149
0.0
100
AcDbLayout
  1
Model
 70
     1
 71
     0
 10
0.0
 20
0.0
 11
279.4
 21
215.9
 12
0.0
 22
0.0
 32
0.0
 14
0.0
 24
0.0
 34
0.0
 15
279.4
 25
215.9
 35
0.0
146
0.0
 13
0.0
 23
0.0
 33
0.0
 16
1.0
 26
0.0
 36
0.0
 17
0.0
 27
1.0
 37
0.0
 76
     0
330
1F
331
29
  0
MLINESTYLE
  5
18
102
{ACAD_REACTORS
330
17
102
}
330
17
100
AcDbMlineStyle
  2
Standard
 70
     0
  3

 62
   256
 51
90.0
 52
90.0
 71
     2
 49
0.5
 62
   256
  6
BYLAYER
 49
-0.5
 62
   256
  6
BYLAYER
  0
ACDBPLACEHOLDER
  5
F
102
{ACAD_REACTORS
330
E
102
}
330
E
  0
SCALE
  5
48
102
{ACAD_REACTORS
330
47
102
}
330
47
100
AcDbScale
 70
     0
300
1:1
140
1.0
141
1.0
290
     1
  0
SCALE
  5
49
102
{ACAD_REACTORS
330
47
102
}
330
47
100
AcDbScale
 70
     0
300
1:2
140
1.0
141
2.0
290
     0
  0
SCALE
  5
4A
102
{ACAD_REACTORS
330
47
102
}
330
47
100
AcDbScale
 70
     0
300
1:4
140
1.0
141
4.0
290
     0
  0
SCALE
  5
4B
102
{ACAD_REACTORS
330
47
102
}
330
47
100
AcDbScale
 70
     0
300
1:5
140
1.0
141
5.0
290
     0
  0
SCALE
  5
4C
102
{ACAD_REACTORS
330
47
102
}
330
47
100
AcDbScale
 70
     0
300
1:8
140
1.0
141
8.0
290
     0
  0
SCALE
  5
4D
102
{ACAD_REACTORS
330
47
102
}
330
47
100
AcDbScale
 70
     0
300
1:10
140
1.0
141
10.0
290
     0
  0
SCALE
  5
4E
102
{ACAD_REACTORS
330
47
102
}
330
47
100
AcDbScale
 70
     0
300
1:16
140
1.0
141
16.0
290
     0
  0
SCALE
  5
4F
102
{ACAD_REACTORS
330
47
102
}
330
47
100
AcDbScale
 70
     0
300
1:20
140
1.0
141
20.0
290
     0
  0
SCALE
  5
50
102
{ACAD_REACTORS
330
47
102
}
330
47
100
AcDbScale
 70
     0
300
1:30
140
1.0
141
30.0
290
     0
  0
SCALE
  5
51
102
{ACAD_REACTORS
330
47
102
}
330
47
100
AcDbScale
 70
     0
300
1:40
140
1.0
141
40.0
290
     0
  0
SCALE
  5
52
102
{ACAD_REACTORS
330
47
102
}
330
47
100
AcDbScale
 70
     0
300
1:50
140
1.0
141
50.0
290
     0
  0
SCALE
  5
53
102
{ACAD_REACTORS
330
47
102
}
330
47
100
AcDbScale
 70
     0
300
1:100
140
1.0
141
100.0
290
     0
  0
SCALE
  5
54
102
{ACAD_REACTORS
330
47
102
}
330
47
100
AcDbScale
 70
     0
300
2:1
140
2.0
141
1.0
290
     0
  0
SCALE
  5
55
102
{ACAD_REACTORS
330
47
102
}
330
47
100
AcDbScale
 70
     0
300
4:1
140
4.0
141
1.0
290
     0
  0
SCALE
  5
56
102
{ACAD_REACTORS
330
47
102
}
330
47
100
AcDbScale
 70
     0
300
8:1
140
8.0
141
1.0
290
     0
  0
SCALE
  5
57
102
{ACAD_REACTORS
330
47
102
}
330
47
100
AcDbScale
 70
     0
300
10:1
140
10.0
141
1.0
290
     0
  0
SCALE
  5
58
102
{ACAD_REACTORS
330
47
102
}
330
47
100
AcDbScale
 70
     0
300
100:1
140
100.0
141
1.0
290
     0
  0
SCALE
  5
59
102
{ACAD_REACTORS
330
47
102
}
330
47
100
AcDbScale
 70
     0
300
1/128" = 1'-0"
140
0.0078125
141
12.0
290
     0
  0
SCALE
  5
5A
102
{ACAD_REACTORS
330
47
102
}
330
47
100
AcDbScale
 70
     0
300
1/64" = 1'-0"
140
0.015625
141
12.0
290
     0
  0
SCALE
  5
5B
102
{ACAD_REACTORS
330
47
102
}
330
47
100
AcDbScale
 70
     0
300
1/32" = 1'-0"
140
0.03125
141
12.0
290
     0
  0
SCALE
  5
5C
102
{ACAD_REACTORS
330
47
102
}
330
47
100
AcDbScale
 70
     0
300
1/16" = 1'-0"
140
0.0625
141
12.0
290
     0
  0
SCALE
  5
5D
102
{ACAD_REACTORS
330
47
102
}
330
47
100
AcDbScale
 70
     0
300
3/32" = 1'-0"
140
0.09375
141
12.0
290
     0
  0
SCALE
  5
5E
102
{ACAD_REACTORS
330
47
102
}
330
47
100
AcDbScale
 70
     0
300
1/8" = 1'-0"
140
0.125
141
12.0
290
     0
  0
SCALE
  5
5F
102
{ACAD_REACTORS
330
47
102
}
330
47
100
AcDbScale
 70
     0
300
3/16" = 1'-0"
140
0.1875
141
12.0
290
     0
  0
SCALE
  5
60
102
{ACAD_REACTORS
330
47
102
}
330
47
100
AcDbScale
 70
     0
300
1/4" = 1'-0"
140
0.25
141
12.0
290
     0
  0
SCALE
  5
61
102
{ACAD_REACTORS
330
47
102
}
330
47
100
AcDbScale
 70
     0
300
3/8" = 1'-0"
140
0.375
141
12.0
290
     0
  0
SCALE
  5
62
102
{ACAD_REACTORS
330
47
102
}
330
47
100
AcDbScale
 70
     0
300
1/2" = 1'-0"
140
0.5
141
12.0
290
     0
  0
SCALE
  5
63
102
{ACAD_REACTORS
330
47
102
}
330
47
100
AcDbScale
 70
     0
300
3/4" = 1'-0"
140
0.75
141
12.0
290
     0
  0
SCALE
  5
64
102
{ACAD_REACTORS
330
47
102
}
330
47
100
AcDbScale
 70
     0
300
1" = 1'-0"
140
1.0
141
12.0
290
     0
  0
SCALE
  5
65
102
{ACAD_REACTORS
330
47
102
}
330
47
100
AcDbScale
 70
     0
300
1-1/2" = 1'-0"
140
1.5
141
12.0
290
     0
  0
SCALE
  5
66
102
{ACAD_REACTORS
330
47
102
}
330
47
100
AcDbScale
 70
     0
300
3" = 1'-0"
140
3.0
141
12.0
290
     0
  0
SCALE
  5
67
102
{ACAD_REACTORS
330
47
102
}
330
47
100
AcDbScale
 70
     0
300
6" = 1'-0"
140
6.0
141
12.0
290
     0
  0
SCALE
  5
68
102
{ACAD_REACTORS
330
47
102
}
330
47
100
AcDbScale
 70
     0
300
1'-0" = 1'-0"
140
12.0
141
12.0
290
     0
  0
ENDSEC
  0
EOF
